Song name
# A B C D E F G H I J K L M N O P Q R S T U V W X Y Z

Lifehouse - Out Of Breath tab

Song: Out of Breath
Artist: Lifehouse
Album: Stanley Climbfall
Tabbed by: chchanga@gmail.com
Tuning: 1/2 step down (Eb Ab Db Gb Bb eb)

More Lifehouse tabs @ halfway2u.webs.com.

Intro:
eb|-------------------------------------------------------------------|
Bb|-------------------------------------------------------------------|
Gb|-------------------------------------------------------------------| x2
Db|---4-4-4-4-4-4-5-5-7-7-7-7-7-7-5-4-5-5-5-5-5-5-5-4-5-4-4-4-4-4-----|
Ab|---5-5-5-5-5-5-5-5-5-5-5-5-5-5-5-5-5-5-5-5-5-5-5-5-5-5-5-5-5-5-----|
Eb|-------------------------------------------------------------------|

Verse:
eb|-------------------------------------------------------------------|
Bb|-------------------------------------------------------------------|
Gb|-------------------------------------------------------------------|
Db|---4-4-4-4-4-4-5-5-7-7-7-7-7-7-5-4-5-5-5-5-5-5-5-4-5-4-4-4-4-4-----|
Ab|---5-5-5-5-5-5-5-5-5-5-5-5-5-5-5-5-5-5-5-5-5-5-5-5-5-5-5-5-5-5-----|
Eb|-------------------------------------------------------------------|
    I still feel the same           though everything has changed

eb|-------------------------------------------------------------------|
Bb|-------------------------------------------------------------------|
Gb|-------------------------------------------------------------------|
Db|---4-4-4-4-4-4-5-5-7-7-7-7-7-7-5-4-5-5-5-5-5-5-5-4-5-4-4-4-4-4-----|
Ab|---5-5-5-5-5-5-5-5-5-5-5-5-5-5-5-5-5-5-5-5-5-5-5-5-5-5-5-5-5-5-----|
Eb|-------------------------------------------------------------------|
  the pain it cost now I feel lost  inside of my own name

Chorus:
            G                D                Bm             A                Em
eb|---------3333333333333333-2222222222222222-22222222-------00000000---------00000000--|
Bb|---------3333333333333333-3333333333333333-33333333-------22222222---------00000000--|
Gb|---------0000000000000000-2222222222222222-44444444-------22222222---------00000000--|
Db|---------0000000000000000-0000000000000000-44444444-------22222222---------22222222--|
Ab|---------2222222222222222------------------22222222-------00000000---------22222222--|
Eb|---------3333333333333333--------------------------------------------------00000000--|
but I keep running  I am running  I keep living for the day that I'm with you

    Em
eb|-0--------|
Bb|-0--------|
Gb|-0--------|
Db|-2--------|
Ab|-2--------|
Eb|-0--------|       Play intro
      that I'm with you

Verse 2: (same as verse 1)
The past has left its stain
Now I feel the shame
I'll seize the day if you take away the chains of yesterday

Chorus x2

Bridge:
     Bm                               Em
eb|--2-2-2-2-2-2-2-2-2-2-2-2-2-2-2-2--0-0-0-0-0-0-0-0-0-0-0-0-0-0-0-0--|
Bb|--3-3-3-3-3-3-3-3-3-3-3-3-3-3-3-3--0-0-0-0-0-0-0-0-0-0-0-0-0-0-0-0--|
Gb|--4-4-4-4-4-4-4-4-4-4-4-4-4-4-4-4--0-0-0-0-0-0-0-0-0-0-0-0-0-0-0-0--|
Db|--4-4-4-4-4-4-4-4-4-4-4-4-4-4-4-4--2-2-2-2-2-2-2-2-2-2-2-2-2-2-2-2--|
Ab|--2-2-2-2-2-2-2-2-2-2-2-2-2-2-2-2--2-2-2-2-2-2-2-2-2-2-2-2-2-2-2-2--|
Eb|-----------------------------------0-0-0-0-0-0-0-0-0-0-0-0-0-0-0-0--|
      A new day the sun is shining      seems I'm closer to finding

     Bm                               Em
eb|--2-2-2-2-2-2-2-2-2-2-2-2-2-2-2-2--0-0-0-0-0-0-0-0-0-0-0-0-0-0-0-0--|
Bb|--3-3-3-3-3-3-3-3-3-3-3-3-3-3-3-3--0-0-0-0-0-0-0-0-0-0-0-0-0-0-0-0--|
Gb|--4-4-4-4-4-4-4-4-4-4-4-4-4-4-4-4--0-0-0-0-0-0-0-0-0-0-0-0-0-0-0-0--|
Db|--4-4-4-4-4-4-4-4-4-4-4-4-4-4-4-4--2-2-2-2-2-2-2-2-2-2-2-2-2-2-2-2--|
Ab|--2-2-2-2-2-2-2-2-2-2-2-2-2-2-2-2--2-2-2-2-2-2-2-2-2-2-2-2-2-2-2-2--|
Eb|-----------------------------------0-0-0-0-0-0-0-0-0-0-0-0-0-0-0-0--|
      that life is more than what we hide

     G                                Bm
eb|--3-3-3-3-3-3-3-3-3-3-3-3-3-3-3-3--2-2-2-2-2-2-2-2-2-2-2-2-2-2-2-2--|
Bb|--3-3-3-3-3-3-3-3-3-3-3-3-3-3-3-3--3-3-3-3-3-3-3-3-3-3-3-3-3-3-3-3--|
Gb|--0-0-0-0-0-0-0-0-0-0-0-0-0-0-0-0--4-4-4-4-4-4-4-4-4-4-4-4-4-4-4-4--|
Db|--0-0-0-0-0-0-0-0-0-0-0-0-0-0-0-0--4-4-4-4-4-4-4-4-4-4-4-4-4-4-4-4--|
Ab|--2-2-2-2-2-2-2-2-2-2-2-2-2-2-2-2--2-2-2-2-2-2-2-2-2-2-2-2-2-2-2-2--|
Eb|--3-3-3-3-3-3-3-3-3-3-3-3-3-3-3-3-----------------------------------|
      no way that I am turning         as long as the sun is burning

     Em                               G
eb|--0-0-0-0-0-0-0-0-0-0-0-0-0-0-0-0--3-3-3-3-3-3-3-3-3-3-3-3-3-3-3-3--|
Bb|--0-0-0-0-0-0-0-0-0-0-0-0-0-0-0-0--3-3-3-3-3-3-3-3-3-3-3-3-3-3-3-3--|
Gb|--0-0-0-0-0-0-0-0-0-0-0-0-0-0-0-0--0-0-0-0-0-0-0-0-0-0-0-0-0-0-0-0--|
Db|--2-2-2-2-2-2-2-2-2-2-2-2-2-2-2-2--0-0-0-0-0-0-0-0-0-0-0-0-0-0-0-0--|
Ab|--2-2-2-2-2-2-2-2-2-2-2-2-2-2-2-2--2-2-2-2-2-2-2-2-2-2-2-2-2-2-2-2--|
Eb|--0-0-0-0-0-0-0-0-0-0-0-0-0-0-0-0--3-3-3-3-3-3-3-3-3-3-3-3-3-3-3-3--|
      now it seems that all I want is you

Verse 1

Chorus x2

Outro same as intro
Tap to rate this tab
# A B C D E F G H I J K L M N O P Q R S T U V W X Y Z