Song name
# A B C D E F G H I J K L M N O P Q R S T U V W X Y Z

Lifehouse - Joshua tab

Hey this is my Version of the Song "Joshua" by Lifehouse

It's such a nice Song and easy as well.

Please rate it

Tuning: EADGBe (Standart)



Intro:

Guitar 1:

E---------|----------|
A---------|----------|
D---------|--------7-|
G---------|------7---|
B------7--|-8-7------|
e-8-7-----|----------|


Guitar 2:


E-0--------|----------|-3--------|--------|
A----------|-3--------|----------|--------|
D---2------|---2------|---0------|-0------|
G-----0----|-----0----|--------2-|--------|
B-------3--|-------3--|------3---|------3-|
e----------|----------|----------|----0---|


Guitar 3:

E-0---0--0-0-|-----------|-3---3--3-3-|-----------|
A-2---2--2-2-|-3-3--3--3-|-2---2--2-2-|-----------|
D-2---2--2-2-|-2-2--2--2-|-0---0--0-0-|-0-0--0--0-|
G-0---0--0-0-|-0-0--0--0-|-0---0--0-0-|-2-2--2--2-|
B-3---3--3-3-|-3-3--3--3-|-3---3--3-3-|-3-3--3--3-|
e-0---0--0-0-|-0-0--0--0-|-0---0--0-0-|-0-0--0--0-|


Verse:

Guitar 2:


E-0--------|----------|-3--------|--------|
A----------|-3--------|----------|--------|
D---2------|---2------|---0------|-0------|
G-----0----|-----0----|--------2-|--------|
B-------3--|-------3--|------3---|------3-|
e----------|----------|----------|----0---|


Guitar 3:

E-0---0--0-0-|-----------|-3---3--3-3-|-----------|
A-2---2--2-2-|-3-3--3--3-|-2---2--2-2-|-----------|
D-2---2--2-2-|-2-2--2--2-|-0---0--0-0-|-0-0--0--0-|
G-0---0--0-0-|-0-0--0--0-|-0---0--0-0-|-2-2--2--2-|
B-3---3--3-3-|-3-3--3--3-|-3---3--3-3-|-3-3--3--3-|
e-0---0--0-0-|-0-0--0--0-|-0---0--0-0-|-0-0--0--0-|


Chorus:

Guitar 1:

E-------------|---------------|-----------|
A-------------|---------------|-----------|
D-2-5---------|---------------|-------5-2-|
G-----2h4---4-|-2h4-----------|-2h4p2-----|
B---------3---|-----3--3/5\3--|-----------|
e-------------|---------------|-----------|


Guitar 3:


E-0---0--0-0-|-----------|-3---3--3-3-|-----------|
A-2---2--2-2-|-3-3--3--3-|-2---2--2-2-|-----------|
D-2---2--2-2-|-2-2--2--2-|-0---0--0-0-|-0-0--0--0-|
G-0---0--0-0-|-0-0--0--0-|-0---0--0-0-|-2-2--2--2-|
B-3---3--3-3-|-3-3--3--3-|-3---3--3-3-|-3-3--3--3-|
e-0---0--0-0-|-0-0--0--0-|-0---0--0-0-|-0-0--0--0-|


Interlude:

Guitar 2:

E-0--------|----------|-3--------|--------|
A----------|-3--------|----------|--------|
D---2------|---2------|---0------|-0------|
G-----0----|-----0----|--------2-|--------|
B-------3--|-------3--|------3---|------3-|
e----------|----------|----------|----0---|


Repeat Verse


Repeat Chorus


Bridge:

// I'm pretty sure the bass is playing the tunes but you can also play the chords below.

Guitar 2: (Palm Mute)

E-0-0---|-------|-3-3---|-----|
A-2-2---|-3-3---|-5-5---|-5---|
D-2-2---|-5-5---|-5-5---|-7---|
G-------|-5-5---|-------|-7---|
B-------|-------|-------|-----|
e-------|-------|-------|-----|


Guitar 1:

E---------|---------|---------|-----------|
A---------|---------|---------|-----------|
D---------|---------|---------|-----------|
G---------|---------|---------|-/6--------|
B-3h5-3h5-|-3h5-3h5-|-3h5-3h5-|-/7--5-3-0-|
e---------|---------|---------|-----------|


Interlude

Chorus 2x


Outro:

Guitar 1:

E---------|----------|
A---------|----------|
D---------|--------7-|
G---------|------7---|
B------7--|-8-7------|
e-8-7-----|----------|



Guitar 2:


E-0--------|----------|-3--------|--------|
A----------|-3--------|----------|--------|
D---2------|---2------|---0------|-0------|
G-----0----|-----0----|--------2-|--------|
B-------3--|-------3--|------3---|------3-|
e----------|----------|----------|----0---|



Don't forget to rate it please

Have fun.
Tap to rate this tab
 
# A B C D E F G H I J K L M N O P Q R S T U V W X Y Z