Song name
# A B C D E F G H I J K L M N O P Q R S T U V W X Y Z

Lifehouse - Well Never Know tab

----------------------------------------------------------------------------
			     Lifehouse - We'll Never Know
----------------------------------------------------------------------------
Tabbed by: Rich!!
Email: rich.rhodez@live.com

Tuning: Standard

This is my first tab, love the song and think there needs to be more versions of the 
I stumbled upon this by accident. Leave comments, let me know what you think.
Note: I have put the bridge in, I know!
Srumming pattern: Just go with the tune! It varies in some places.I've only put down the 
that are on it because of this.


Intro (repeated until the singing comes in)
e|-----------0----------0-----2-------0-----------4-----------0----------------------|
B|------ 0------0---------------0--------0------------0------------0-----------------|
G|-----------------------------------------------------------------------------------|
D|-----------------------------------------------------------------------------------|
A|-----------------------------------------------------------------------------------|
E|-----------------------------------------------------------------------------------|

e|---------0----------------------------------------------------------------------|
B|---4----------2------0----------------------------------------------------------|
G|--------------------------------------------------------------------------------|
D|--------------------------------------------------------------------------------|
A|--------------------------------------------------------------------------------|
E|--------------------------------------------------------------------------------|


Verse

     Tell me all.....                        Slip right through your hands
e|------------------------------------------------------------------------------|
B|------------------------------------------------------------------------------|
G|---3-------------------------------------------------------2------------------|
D|---3-------------------------------------------------------2------------------|
A|---1--------------------------------------------------------------------------|
E|------------------------------------------------------------------------------|

    Do you feel lost                                   inside of someone
|-------------------------------------------------------------------------------|
B|------------------------------------------------------------------------------|
G|---3-------------------------------------------------------2------------------|
D|---3-------------------------------------------------------2------------------|
A|---1--------------------------------------------------------------------------|
E|------------------------------------------------------------------------------|


   Elses                          Life
e|------------------------------------------------------------------------------|
B|------------------------------------------------------------------------------|
G|---6------------------------------2-------------------------------------------|
D|---6------------------------------2-------------------------------------------|
A|---4--------------------------------------------------------------------------|
E|------------------------------------------------------------------------------|

Chorus:


      We're not gonna live forever
e|------------------------------------------------------------------------------|
B|------------------------------------------------------------------------------|
G|-----1--------------------3---------------------------------------------------|
D|-----2--------------------3---------------------------------------------------|
A|-----2--------------------1---------------------------------------------------|
E|------------------------------------------------------------------------------|

    Can you tell me is it now or never?
e|------------------------------------------------------------------------------|
B|------------------------------------------------------------------------------|
G|----2-------------------------------------------------------------------------|
D|----2-------------------------------------------------------------------------|
A|------------------------------------------------------------------------------|
E|------------------------------------------------------------------------------|
       I'm not gonna make up your mind
e|-------------------------------------------------------------------------------|
B|-------------------------------------------------------------------------------|
G|-----6--------------3------------2---------------------------------------------|
D|-----6--------------3------------2---------------------------------------------|
A|-----4--------------1----------------------------------------------------------|
E|-------------------------------------------------------------------------------|

      I don't wanna        live without you
e|------------------------------------------------------------------------------|
B|------------------------------------------------------------------------------|
G|-----1--------------------3---------------------------------------------------|
D|-----2--------------------3---------------------------------------------------|
A|-----2--------------------1---------------------------------------------------|
E|------------------------------------------------------------------------------|

    But i don't wanna live a lie
e|------------------------------------------------------------------------------|
B|------------------------------------------------------------------------------|
G|----2-------------------------------------------------------------------------|
D|----2-------------------------------------------------------------------------|
A|------------------------------------------------------------------------------|
E|------------------------------------------------------------------------------|
       We'll never    Know til we Try!!
e|-------------------------------------------------------------------------------|
B|-------------------------------------------------------------------------------|
G|-----6--------------3------------2---------------------------------------------|
D|-----6--------------3------------2---------------------------------------------|
A|-----4--------------1----------------------------------------------------------|
E|-------------------------------------------------------------------------------|


Failure is the only way to learn till you've come undone
The rest will never find out what they might have been

And we're not gonna live forever
Can you tell me is it now or never
I'm not gonna make up your mind

I don't wanna live without you
And I don't wanna live a lie
We'll never know till we try
Yeah we'll never know till we try   x3 at end


*thanks guys*
Tap to rate this tab
# A B C D E F G H I J K L M N O P Q R S T U V W X Y Z