Song name
# A B C D E F G H I J K L M N O P Q R S T U V W X Y Z

Lifehouse - Halfway Gone tab

Band: Lifehouse
Song: Halfway Gone
Album: Smoke&Mirrors

Hey!
I've seen a few tabs and noticed that I play this Song a bit different.
I think that's how Jason play it


Intro:

E-9-9-9-9-9-9-9-9-9-|-9-9-9-9-9-9-9-9-|-12-12-12-12-12-12-12-12-|-11-11-11-11-11-11-11-11-|
A-7-7-7-7-7-7-7-7-7-|-0-0-0-0-0-0-0-0-|-11-11-11-11-11-11-11-11-|--9--9--9--9--9--9--9--9-|
D-------------------|-----------------|-------------------------|-------------------------|
G-------------------|-----------------|-------------------------|-------------------------|
B-------------------|-----------------|-------------------------|-------------------------|
e-------------------|-----------------|-------------------------|-------------------------|


Verse:

E|-9-9-9-9-9-9-9-9-|-9-9-9-9-9-9-9-9-|-12-12-12-12-12-12-12-12-|-11-11-11-11-11-11-11-11-|
A|-7-7-7-7-7-7-7-7-|-0-0-0-0-0-0-0-0-|-11-11-11-11-11-11-11-11-|--9--9--9--9--9--9--9--9-|
D|-----------------|-----------------|-------------------------|-------------------------|
G|-----------------|-----------------|-------------------------|-------------------------|
B|-----------------|-----------------|-------------------------|-------------------------|
e|-----------------|-----------------|-------------------------|-------------------------|

E|-9-9-9-9-9-9-9-9-|-2-2-2-2-2-2-2-2-|-12-12-12-12-12-12-12-12-|-11-11-11-11-11-11-11-11-|
A|-7-7-7-7-7-7-7-7-|-0-0-0-0-0-0-0-0-|-11-11-11-11-11-11-11-11-|--9--9--9--9--9--9--9--9-|
D|-----------------|-----------------|-------------------------|-------------------------|
G|-----------------|-----------------|-------------------------|-------------------------|
B|-----------------|-----------------|-------------------------|-------------------------|
e|-----------------|-----------------|-------------------------|-------------------------|


Pre-Chorus: ("Talk is cheap give me a word....")

E|-9-9-9-9-9-9-9-9-|-11-11-11-11-11-11-11-11-|-9-9-9-9-9-9-9-9-|-12-|
A|-0-0-0-0-0-0-0-0-|--9--9--9--9--9--9--9--9-|-7-7-7-7-7-7-7-7-|-11-|
D|-----------------|-------------------------|-----------------|----|
G|-----------------|-------------------------|-----------------|----|
B|-----------------|-------------------------|-----------------|----|
e|-----------------|-------------------------|-----------------|----|


Chorus:

E|-----------------|-----------------|-0-0-0-0-0-0-0-0-|-----------------|
A|-4-4-4-4-4-4-4-4-|-0-0-0-0-0-0-0-0-|-2-2-2-2-2-2-2-2-|-2-2-2-2-2-2-2-2-|
D|-6-6-6-6-6-6-6-6-|-2-2-2-2-2-2-2-2-|-2-2-2-2-2-2-2-2-|-4-4-4-4-4-4-4-4-|
G|-6-6-6-6-6-6-6-6-|-2-2-2-2-2-2-2-2-|-1-1-1-1-1-1-1-1-|-4-4-4-4-4-4-4-4-|
B|-0-0-0-0-0-0-0-0-|-0-0-0-0-0-0-0-0-|-0-0-0-0-0-0-0-0-|-0-0-0-0-0-0-0-0-|
e|-0-0-0-0-0-0-0-0-|-0-0-0-0-0-0-0-0-|-0-0-0-0-0-0-0-0-|-0-0-0-0-0-0-0-0-|


Verse

Pre-Chorus

Chorus

Bridge: (Like Verse)

E|-9-9-9-9-9-9-9-9-|-9-9-9-9-9-9-9-9-|-12-12-12-12-12-12-12-12-|-11-11-11-11-11-11-11-11-|
A|-7-7-7-7-7-7-7-7-|-0-0-0-0-0-0-0-0-|-11-11-11-11-11-11-11-11-|--9--9--9--9--9--9--9--9-|
D|-----------------|-----------------|-------------------------|-------------------------|
G|-----------------|-----------------|-------------------------|-------------------------|
B|-----------------|-----------------|-------------------------|-------------------------|
e|-----------------|-----------------|-------------------------|-------------------------|

E|-9-9-9-9-9-9-9-9-|-2-2-2-2-2-2-2-2-|-12-12-12-12-12-12-12-12-|-11-11-11-11-11-11-11-11-|
A|-7-7-7-7-7-7-7-7-|-0-0-0-0-0-0-0-0-|-11-11-11-11-11-11-11-11-|--9--9--9--9--9--9--9--9-|
D|-----------------|-----------------|-------------------------|-------------------------|
G|-----------------|-----------------|-------------------------|-------------------------|
B|-----------------|-----------------|-------------------------|-------------------------|
e|-----------------|-----------------|-------------------------|-------------------------|


Chorus


That's it.

Hope U like it.

Please Rate it.
Tap to rate this tab
# A B C D E F G H I J K L M N O P Q R S T U V W X Y Z