Song name
# A B C D E F G H I J K L M N O P Q R S T U V W X Y Z

Lifehouse - All In tab

-------------------------------------------------------------------------------
			     ALL IN - Lifehouse
-------------------------------------------------------------------------------
amazing new song off the new Lifehouse album "Smoke & Mirrors"....be sure to give it a listen!

Tuning: 1/2 step down 

Intro (repeat twice)-listen to the song to get the strumming pattern
e|---------------------------------------------------------------------------|
B|---------------------------------------------------------------------------|
G|---4------11------6------7-----6-------------------------------------------|
D|---5------12------7------9-----7-------------------------------------------|
A|---5------12------7------9-----7-------------------------------------------|
E|---------------------------------------------------------------------------|

Verse (repeat twice)
e|---------------------------------------------------------------------------|
B|---------------------------------------------------------------------------|
G|---11------4------7------6------4------------------------------------------|
D|---12------5------9------7------5------------------------------------------|
A|---12------5------9------7------5------------------------------------------|
E|---------------------------------------------------------------------------|

Pre-chorus
e|---------------------------------------------------------------------------|
B|---------------------------------------------------------------------------|
G|----7-----6-----4----------------------------------------------------------|
D|----9-----7-----5----------------------------------------------------------|
A|----9-----7-----5----------------------------------------------------------|
E|---------------------------------------------------------------------------|

Chorus                      
e|----2--------3------------------------3--------------------------------------|
B|----3--------3------------------------3--------------------------------------|
G|----2--------0--------4-------2-------0--------------------------------------|
D|----0--------0--------4-------2-------0--------------------------------------|
A|-------------2--------2-------4-------2--------------------------------------|
E|-------------3------------------------3--------------------------------------|

Verse 2 (same)

Chorus 

Bridge (same chords as the verse)

The part right before the last chorus is a bit different...
e|----2--------3--------------------0------------------------------------------|
B|----3--------3--------------------0------------------------------------------|
G|----2--------0-------4------2-----0------------------------------------------|
D|----0--------0-------4------2-----2------------------------------------------|
A|-------------2-------2------4-----2------------------------------------------|
E|-------------3--------------------0------------------------------------------|

Chorus
End the song on Em
Tap to rate this tab
 
# A B C D E F G H I J K L M N O P Q R S T U V W X Y Z