Song name
# A B C D E F G H I J K L M N O P Q R S T U V W X Y Z

Lifehouse - Halfway Gone tab

I got this tab directly from a youtube video of Jason Wade (lead vocalist/
guitarist from Lifehouse)
teaching how to play this song, so I know it is 100% correct. If you want to watch
it here is the link:
http://www.youtube.com/watch?v=eWP1skrrPGc

TUNING: Standard for album version
        1/2 step down for acoustic version

Intro:
"Halfway gone, I'm halfway gone"
E|--0--0--0---0-----|
B|--0--0--0---0-----|
G|--6--6--9---4-----|
D|--6--6--9---4-----|  x1
A|--4--4--11--6-----|
E|--x--5--x---x-----|

Verse 1:
"You were always hard to hold..."
E|--0--0--0---0--0--0--0--0--|
B|--0--0--0---0--0--0--0--0--|
G|--6--6--9---4--6--2--1--4--|
D|--6--6--9---4--6--2--2--4--|  x1
A|--4--4--11--6--4--0--2--2--|
E|--x--5--x---x--x--2--0--x--|

Pre-chorus:
"Talk, talk is cheap..."
E|--0--0--0--0--|
B|--0--0--0--0--|
G|--2--4--6--1--|
D|--2--4--6--2--|  x1
A|--4--6--4--0--|
E|--x--x--x--x--|

Chorus:
"Cuz I'm halfway gone and I'm on my way..."
E|--0--0--0--0--|
B|--0--0--0--0--|
G|--9--9--9--8--|
D|--9--9--9--9--|  x3
A|--x--0--7--0--|
E|--9--x--0--7--|

Verse 2:
"You got one foot out the door..."
E|--0--0--0---0--0--0--0--0--|
B|--0--0--0---0--0--0--0--0--|
G|--6--6--9---4--6--2--1--4--|
D|--6--6--9---4--6--2--2--4--|  x1
A|--4--4--11--6--4--0--2--2--|
E|--x--5--x---x--x--2--0--x--|

Pre-chorus:
"Talk,talk is cheap..."
E|--0--0--0--0--|
B|--0--0--0--0--|
G|--2--4--6--1--|
D|--2--4--6--2--|  x1
A|--4--6--4--0--|
E|--x--x--x--x--|

Chorus:
"Cuz I'm halfway gone and I'm on my way..."
E|--0--0--0--0--|
B|--0--0--0--0--|
G|--9--9--9--8--|
D|--9--9--9--9--|  x6
A|--x--0--7--0--|
E|--9--x--0--7--|

Breakdown/Bridge:
"Don't take too long..."
E|--0--0--0---0--0--0--0--0--|
B|--0--0--0---0--0--0--0--0--|
G|--6--6--9---4--6--2--1--4--|
D|--6--6--9---4--6--2--2--4--|  x1
A|--4--4--11--6--4--0--2--2--|
E|--x--5--x---x--x--2--0--x--|

Chorus:
"Cuz I'm halfway gone..."
E|--0--0--0--0--|
B|--0--0--0--0--|
G|--9--9--9--8--|
D|--9--9--9--9--|  x6
A|--x--0--7--0--|
E|--9--x--0--7--|
Tap to rate this tab
 
# A B C D E F G H I J K L M N O P Q R S T U V W X Y Z