Song name
# A B C D E F G H I J K L M N O P Q R S T U V W X Y Z

Lifehouse - Halfway Gone tab

-------------------------------------------------------------------------------
			     SONG NAME - Band Name
-------------------------------------------------------------------------------
Tabbed by:

Heres how to play Halfway Gone, this is the way Jason plays it in his acoustic version. 
is the basic chord structure, just listen to the track to get a feel for the strumming pattern=)
Tuning: Half step down but standard will be fine

Intro/Verse

e|--------------------------------------------------------------------------------------|
B|--------------------------------------------------------------------------------------|
G|---6-6-------6214---------------------------------------------------------------------|
D|---6-6--9-4--6224---------------------------------------------------------------------|
A|---4-4-11-7--4x22---------------------------------------------------------------------|
E|-----5--------2-----------------------------------------------------------------------|

Pre-Chorus
e|-----0---------------------------------------------------------------------------|
B|-----0---------------------------------------------------------------------------|
G|----61---------------------------------------------------------------------------|
D|--2462---------------------------------------------------------------------------|
A|--4640---------------------------------------------------------------------------|
E|---------------------------------------------------------------------------------|

Chorus

e|---------------------------------------------------------------------------------|
B|---------------------------------------------------------------------------------|
G|---9998--------------------------------------------------------------------------|
D|---9999--------------------------------------------------------------------------|
A|---x07x--------------------------------------------------------------------------|
E|---9--7--------------------------------------------------------------------------|


Bridge=Same as intro/verse
Tap to rate this tab
# A B C D E F G H I J K L M N O P Q R S T U V W X Y Z