Lifehouse - Whatever It Takes tab

Whatever It Takes
Artist: Lifehouse
Tabber: jamesdinoy
email: jamesdinoy@yahoo.com

um im new at UG but pls feel free to enjoy my tab its kinda better than the other tabs 
far as i've seen hahaha

this is a solo for those guys who want to serenade and stuff and for those newbies pls 
ur guitar well coz u might sound out of tune HAHAHA easy song this here lads

INTRO:

do the pucking fast following up from the strum k


see the cord dont move ur hand off the cord when you play the plucking part

|--0---------0------------------0----------|
|--1--1---1----1---1---1-----1-----1-----1-|
|--0----0--------0--------0-----------0----|
|--3---------------------------------------|
|--3---------------------------------------|
|--x---------------------------------------|


|--0---------0------------------0----------|
|--1--1---1----1---1---1-----1-----1-----1-|
|--0----0--------0--------0-----------0----|
|--0---------------------------------------|
|--2---------------------------------------|
|--3---------------------------------------|

repeat sequence


VERSE:

A strangled smile fell from your face...

|--0--0--0--0--0--0--0-------------------0--0--0--0--0--0--0--0-|
|--1--1--1--1--1--1--1-------------------1--1--1--1--1--1--1--1-|
|--0--0--0--0--0--0--0-------------------0--0--0--0--0--0--0--0-|
|--3--3--3--3--3--3--3-------------------0--0--0--0--0--0--0--0-|
|--3--3--3--3--3--3--3-------------------2--2--2--2--2--2--2--2-|
|--x--x--x--x--x--x--x-------------------3--3--3--3--3--3--3--3-|


It kills me that I've hurt you this way...

|--0--0--0--0--0--0--0-------------------0--0--0--0--0--0--0--0-|
|--1--1--1--1--1--1--1-------------------1--1--1--1--1--1--1--1-|
|--0--0--0--0--0--0--0-------------------0--0--0--0--0--0--0--0-|
|--3--3--3--3--3--3--3-------------------0--0--0--0--0--0--0--0-|
|--3--3--3--3--3--3--3-------------------2--2--2--2--2--2--2--2-|
|--x--x--x--x--x--x--x-------------------3--3--3--3--3--3--3--3-|

The worst part is that I didn't even know...

|--0--0--0--0--0--0--0-------------------0--0--0--0--0--0--0--0-|
|--1--1--1--1--1--1--1-------------------1--1--1--1--1--1--1--1-|
|--0--0--0--0--0--0--0-------------------0--0--0--0--0--0--0--0-|
|--3--3--3--3--3--3--3-------------------0--0--0--0--0--0--0--0-|
|--3--3--3--3--3--3--3-------------------2--2--2--2--2--2--2--2-|
|--x--x--x--x--x--x--x-------------------3--3--3--3--3--3--3--3-|

[Now there's a million reasons] [for you to ] [go]

|--0--0--0--0--0--0-------------0--0--0--0----x--x--x--x--x-|
|--1--1--1--1--1--1-------------1--1--1--1----3--3--3--3--3-|
|--0--0--0--0--0--0-------------0--0--0--0----2--2--2--2--2-|
|--2--2--2--2--2--2-------------0--0--0--0----0--0--0--0--0-|
|--0--0--0--0--0--0-------------2--2--2--2----0--0--0--0--0-|
|--0--0--0--0--0--0-------------3--3--3--3----x--x--x--x--x-|

[But if you can find]         [the reason to]    [stay...I'll do whatever..]

|--0--0--0--0--0--0-------------0--0--0--0----0--0--0--0--0-|
|--1--1--1--1--1--1-------------1--1--1--1----1--1--1--1--1-|
|--0--0--0--0--0--0-------------0--0--0--0----0--0--0--0--0-|
|--2--2--2--2--2--2-------------0--0--0--0----3--3--3--3--3-|
|--0--0--0--0--0--0-------------2--2--2--2----3--3--3--3--3-|
|--0--0--0--0--0--0-------------3--3--3--3----0--0--0--0--0-|

CHORUS:

it takes to turn this             around....I know what's at

|--0--0--0--0--0--0-------------0--0--0--0----|
|--1--1--1--1--1--1-------------1--1--1--1----|
|--0--0--0--0--0--0-------------0--0--0--0----|
|--2--2--2--2--2--2-------------0--0--0--0----|
|--3--3--3--3--3--3-------------2--2--2--2----|
|--0--0--0--0--0--0-------------3--3--3--3----|

stake... I know that I've let you       down...and if you give me the

|------------------------------------0--0--0--0--0-|
|--1--1--1--1--1---------------------1--1--1--1--1-|
|--0--0--0--0--0---------------------0--0--0--0--0-|
|--2--2--2--2--2---------------------3--3--3--3--3-|
|--0--0--0--0--0---------------------3--3--3--3--3-|
|------------------------------------0--0--0--0--0-|


chance...believe it I can         change...I'll keep us

|--0--0--0--0--0--0-------------0--0--0--0----|
|--1--1--1--1--1--1-------------1--1--1--1----|
|--0--0--0--0--0--0-------------0--0--0--0----|
|--2--2--2--2--2--2-------------0--0--0--0----|
|--3--3--3--3--3--3-------------2--2--2--2----|
|--0--0--0--0--0--0-------------2--2--2--2----|


 together whatever it                takessssss
|------------------------------------0--0--0--0--0-|
|--1--1--1--1--1---------------------1--1--1--1--1-|
|--0--0--0--0--0---------------------0--0--0--0--0-|
|--2--2--2--2--2---------------------3--3--3--3--3-|
|--0--0--0--0--0---------------------3--3--3--3--3-|
|------------------------------------0--0--0--0--0-|

INTRO

VERSE

CHORUS

enjoy
Tap to rate this tab
 
# A B C D E F G H I J K L M N O P Q R S T U V W X Y Z