Song name
# A B C D E F G H I J K L M N O P Q R S T U V W X Y Z

Lifehouse - Spin tab

THIS IS THE BEST TAB YULL GET - ROCKKKKKKKKKKK MANIA

	/ = slide

     Intro:
e|-----------------------------l
B|-----------------------------l
G|-----------------------------l
D|---4-----0----x-----5--------l
A|---5--/--2----2-----5--------l
E|---x-----x----0-----3--------l

    Verse:  Palm mute
e|---------------------------------------------------------------------l
B|---------------------------------------------------------------------l
G|-5--------------7-------5--------------------------------------------l
D|-5-----7--------7-------5-------3-------5----------7------------3----l
A|-3-----7--------5-------3-------3-------5----------7------------3----l
E|-------5------------------------1-------3----------5------------1----l
  I'd.. life...  own...  you... know...  than...  convinced...   know.

  Chorus:
e|--------------------------------------------------------------l
B|--------------------------------------------------------------l
G|---5----------------------7------------5----------------------l
D|---5------------7---------7------------5-------------3--------|  2x
A|---3------------7---------5------------3-------------3--------|
E|----------------5------------------------------------1--------|
    And...     round...   down...    wouldn't...     thing.


e|--------------------------------------l
B|--------------------------------------l
G|-----7-----------5--------------------l
D|-----7-----------5-----------3--------|
A|-----5-----------3-----------3--------|
E|-----------------------------1--------|
      No...    wouldn't...   thing.

     Interlude:  Palm mute
e|-------------------------------------------------------l
B|-------------------------------------------------------l
G|------5------------------------------------------------l
D|------5-----------5--------7----------3----------------|   4x
A|------3-----------5--------7----------3----------------|
E|------------------3--------5----------1----------------|
     Spinning    turning  watching   burning...

Then play the last part of the chorus a couple times. "No you and I, I wouldn't
change a thing."

Then play the chorus till the end.	
Tap to rate this tab
# A B C D E F G H I J K L M N O P Q R S T U V W X Y Z