Song name
# A B C D E F G H I J K L M N O P Q R S T U V W X Y Z

Lifehouse - Spin tab

Artist: Lifehouse
Song: Spin
Album: Stanley Climbfall
Tunning: normal tunning



Intro: (Clean) 
 
[-------------------------------------------------]
[-------------------------------------------------]
[-------------------------------------------------]
[----3---4---3---------------8--------------------]
[----4---4---4---4---6---4---6--------------------]
[----------------6---6---6------------------------]


Verse 1: (Clean) 


[-------------------------------------------------]
[-------------------------------------------------]
[-------------------------------------------------]
[----3---4---3---------------8--------------------]
[----4---4---4---4---6---4---6--------------------]
[----------------6---6---6------------------------]


[-------------------------------------------------]
[-------------------------------------------------]
[-------------------------------------------------]
[----3---4---3---------------8---10---11----------]
[----4---4---4---4---6---4---6---8----9-----------]
[----------------6---6---6------------------------]


Chorus: (Dist)


[-------------------------------------------------]
[-------------------------------------------------]
[----6---3---8---10---11--------------------------]
[----6---3---8---10---11--------------------------]
[----4---1---6----8----9--------------------------]
[-------------------------------------------------]  x2



[-------------------------------------------------]
[-------------------------------------------------]
[-----8----10------15-----13----11----10----------]
[-----8----10-------------------------------------]
[-----6-----8------13-----11-----9-----8----------]
[-------------------------------------------------]


Verse 2: (Clean) Same thing as the first one.


[-------------------------------------------------]
[-------------------------------------------------]
[-------------------------------------------------]
[----3---4---3---------------8--------------------]
[----4---4---4---4---6---4---6--------------------]
[----------------6---6---6------------------------]


[-------------------------------------------------]
[-------------------------------------------------]
[-------------------------------------------------]
[----3---4---3---------------8---10---11----------]
[----4---4---4---4---6---4---6---8----9-----------]
[----------------6---6---6------------------------]


Chorus 2: (Dist) Same thing as the first, Chorus 1.


[-------------------------------------------------]
[-------------------------------------------------]
[----6---3---8---10---11--------------------------]
[----6---3---8---10---11--------------------------]
[----4---1---6----8----9--------------------------]
[-------------------------------------------------]  x2



[-------------------------------------------------]
[-------------------------------------------------]
[-----8----10------15-----13----11----10----------]
[-----8----10-------------------------------------]
[-----6-----8------13-----11-----9-----8----------]
[-------------------------------------------------]


Bridge: Guitar 1 plays this..


[---------------------13---16---------------------]
[-----14---------16------------16-----------------]
[--------13--14-----------------------------------]
[-------------------------------------------------]
[-------------------------------------------------]
[-------------------------------------------------]  x2


[---------------------13---16---17----------------]
[-----14---------16-----------------19------------]
[--------13--14-----------------------------------]
[-------------------------------------------------]
[-------------------------------------------------]
[-------------------------------------------------]  x2


[-------------------------------------------------]
[-------------------------------------------------]
[------8-----10----11-----------------------------]
[------8-----10----11-----------------------------]
[------6------8-----9-----------------------------]
[-------------------------------------------------] x2


[-------------------------------------------------]
[-------------------------------------------------]
[-6----3-----8-----10----11-----------------------]
[-6----3-----8-----10----11-----------------------]
[-4----1-----6------8-----9-----------------------]
[-------------------------------------------------]


Last Chorus: (Dist)


[-------------------------------------------------]
[-------------------------------------------------]
[----6---3---8---10---11--------------------------]
[----6---3---8---10---11--------------------------]
[----4---1---6----8----9--------------------------]
[-------------------------------------------------]  


[-------------------------------------------------]
[-------------------------------------------------]
[----6---3---8---10-----15-----13----11----10-----]
[----6---3---8---10-------------------------------]
[----4---1---6----8-----13-----11-----9-----8-----]
[-------------------------------------------------]  


[-------------------------------------------------]
[-------------------------------------------------]
[-----8----10------15-----13----11----10----------]
[-----8----10-------------------------------------]
[-----6-----8------13-----11-----9-----8----------]
[-------------------------------------------------]

Ending: 

[---------------------13---16---------------------]
[-----14---------16------------16-----------------]
[--------13--14-----------------------------------]
[-------------------------------------------------]
[-------------------------------------------------]
[-------------------------------------------------] x2
Tap to rate this tab
 
# A B C D E F G H I J K L M N O P Q R S T U V W X Y Z