Lifehouse - Blind tab

BLind

by:lifehouse
Tab:Ikydina
Dedicated to:Rhowee Leoparte this song is for you... :)

intro: A,C#,F#,E power chords

Guitar 1
                                  |---------------------------|
e|--------------------|-------------|-------------------------|
B|--------------------|-------------|-------------------------|
G|--------------------|-------------|-11-9-11--11-11-11-------|
D|-9--7-7--9---11-9-7-|-6--4--6--7--|-------------------------|
A|-7--7-7--7----------|-4--2--4--4--|-9--7-9---9--9--9--------|
D|-7--7-7--7----------|-------------|-------------------------|

e|-----------------|
B|-----------------|
G|-2-2-2-2--1-1----|
D|-2-2-2-2--2-2----|   play this guitar 1 until refrain
A|-2-2-2-2--2-2----|
D|-x-x-x-x--x-x----|



Guitar 2 (play this after guitar 1 play the intro)

e|-9^-----------------|-9-----------|-9---------------------|
B|--------------------|--12---------|-----------------------|
G|--------------------|-------------|-----------------------|
D|--------------------|-------------|-----------------------|
A|--------------------|-------------|-----------------------|
D|--------------------|-------------|-----------------------|

e|-12------------|
B|---12----------|
G|---------------|
D|---------------|
A|---------------|
D|---------------|


Verse: as i said lately use the intro for guitar 1 (guitar 2 is muted)

Refrain:

Guitar 1
e|------------------|
B|------------------|
G|-6---6-6-6--6-6-6-|   play this 3x and, listen carefully to its strum
D|-7---7-7-7--7-7-7-|
A|-5---5-5-5--5-5-5-|
D|------------------|

Bass
G|------------------|
D|------------------|
A|-5---\5-5--\5-5---|  play this 3x timing with guitar 1
D|------------------|

Guitar 2
e|--------------------------------|
B|-10h12-10-9-10-9-10-9-10-9-10-12|
G|--------------------------------|
D|--------------------------------| play this 3x, listen to its timing
A|--------------------------------| (this is difficult if u didn't listen)
D|--------------------------------|


Chorus:

Guitar 1

e|------------|-----------|------------|------------|
B|------------|-----------|------------|------------|
G|------------|-9---------|-7----------|-9----------|
D|-7----------|-9---------|-7----------|-9----------| play this 2x
A|-7----------|-7---------|-5----------|-7----------|
D|-7----------|-----------|------------|------------|

Guitar 2

e|------------|-----------|------------|------------|
B|------------|--------12-|------------|------------|
G|-9~---------|-\9--------|-11---------|-\13h14-----|
D|------------|-----------|------------|------------| play this 2x
A|------------|-----------|------------|------------|
D|------------|-----------|------------|------------|

then in this part "And i loved you more..."

Guitar 1
e|------------|-----------|------------|------------|
B|------------|-----------|------------|------------|
G|-11---------|-7---------|------------|-9----------|
D|-11---------|-7---------|-7----------|-9----------| play this 2x
A|-9----------|-5---------|-7----------|-7----------|
D|------------|-----------|-7----------|------------|

Guitar 2
e|----------------------|----------------------|-------9-------9--------|
B|----------------------|-9-10-10-9-10-10-9-10-|-10-12---10-12--10-12---|
G|-9-11-11-9-11-11-9-11-|----------------------|------------------------|
D|----------------------|----------------------|------------------------|
A|----------------------|----------------------|------------------------|
D|----------------------|----------------------|------------------------|

|------------------------|
|-10-12-12-10-10-9-9-----|
|--------------------11--|
|------------------------| play this 2x
|------------------------|
|------------------------|

(REPEAT THE REFRAIN BEFORE INTER

Repeat the whole verse, refrain and chorus for the second part...

Solo:

guitar 1

e|------------|-----------|------------|------------|
B|------------|-----------|------------|------------|
G|-6----------|-----------|-11---------|-9----------|
D|-6----------|-7---------|-11---------|-9----------| play each chord 2x longer
A|-4----------|-7---------|-9----------|-7----------|  than the intro... :)
D|------------|-7---------|------------|------------|

Bass

G|--------------------------------|---------------------------------|
D|--------------------------------|---------------------------------|
A|-4--\4-4--\4-4--4--\4-4--\4-4---|---------------------------------|
D|--------------------------------|--7--\7-7-\7-7--7--7--\7-7-\7-7--|


-------------------------------|---------------------------------|
-------------------------------|---------------------------------|
-------------------------------|-----------------\7--\7-7-\7-7---|
-4--\4-4-\4-4--4--\4-4-\4-4--4-|-2-2-2-2-2-2-2-2-----------------|



guitar 2

e|-----------------------|------------------------|----------------------|
B|-----------------------|------------------------|----------------------|
G|-9-11------------------|-9-11-------------------|-9-11-----------------|
D|------11~---11-11^-9-7-|------11^---11-11^-9-7--|------11^---11-11^-9-7|
A|-----------------------|------------------------|----------------------|
D|-----------------------|------------------------|----------------------|

        |---------------------------------------|
------------------------------------------------|
------------------------------------------------|
--------\13-13-13-13-13-13-13-13-13-13-13-13/---|
-9<>--------------------------------------------|
------------------------------------------------|
------------------------------------------------|



Chorus 2:

play only the guitar 1 in the first 4 line of the song...
and when the lines "And i loved you more...." comes to enter...
ROCK ON to this part ... (LOL :D) hahaha

Guitar 1
e|------------|-----------|------------|------------|
B|------------|-----------|------------|------------|
G|-11---------|-7---------|------------|-9----------|
D|-11---------|-7---------|-7----------|-9----------| play this 2x
A|-9----------|-5---------|-7----------|-7----------|
D|------------|-----------|-7----------|------------|

Guitar 2
e|----------------------|----------------------|-------9-------9--------|
B|----------------------|-9-10-10-9-10-10-9-10-|-10-12---10-12--10-12---|
G|-9-11-11-9-11-11-9-11-|----------------------|------------------------|
D|----------------------|----------------------|------------------------|
A|----------------------|----------------------|------------------------|
D|----------------------|----------------------|------------------------|

------------------------|
-10-12-12-10-10-9-9-----|
--------------------11--|
------------------------| play this 2x
------------------------|
------------------------|

note this last two line of the chorus 2 was played 2x :)


then end with the refrain....




HOPE YOU LIKE IT :D

add niu ko sa FB hehe ikydina_dose@yahoo.com.ph
tnx :)

bati ko cr8sean band JAM? hehe pati si rhowee mwa. :*
Tap to rate this tab
 
# A B C D E F G H I J K L M N O P Q R S T U V W X Y Z