Lifehouse - Nerve Damage tab

Tab by Morten Junker, 2011

Tuning: Half step down all strings



Intro/verse: ( listen for picking pattern )

--------7-------7-----------------7---|
------7--7----7-----7-7h8p7-7---7--7--|
-----7-7--7--7-7---7-7-----7-7-7-7--7-|
----9------/6----65-----------4-------|
--------------------------------------|
--------------------------------------|



-----7-------7--------------7-9-10---7-------7---7-|
---7--7----7-----787-7----7--------7--7----7-----7-|
--7-7--7--7-7---7---7-7--7-7------7-7--7--7-7----7-|
/9------/6----65--------4--------9------/6-----6-5-|
---------------------------------------------------|
---------------------------------------------------|



Chorus ( listen for strumming pattern )

 ---------------------------------------------------------------|
----------------------------------------------------------------|
----------------------------------------------------------------|
-99-xxxx-99-xxxx-99-xxxx-6-7-8-99-xxxx-99-xxxx-99-xxxx-6-7-88---|
-99-xxxx-99-xxxx-99-xxxx-6-7-8-99-xxxx-99-xxxx-99-xxxx-6-7-88---|
-77-xxxx-77-xxxx-77-xxxx-4-5-6-77-xxxx-77-xxxx-77-xxxx-4-5-66---|



-----------------------------------------4--------------------|
--------------------------------------------------------------|
---------------------------------------/4---------------------|
-99-xxxx-99-xxxx-99-xxxx-4-5-5-7--2---------------------------|
-99-xxxx-99-xxxx-99-xxxx-5-5-7-7--2---------------------------|
-77-xxxx-77-xxxx-77-xxxx-2-3-4-5--0---------------------------|



Solo: Just improvise ;)
Tap to rate this tab
 
# A B C D E F G H I J K L M N O P Q R S T U V W X Y Z