Song name
# A B C D E F G H I J K L M N O P Q R S T U V W X Y Z

Lifehouse - Between The Raindrops tab

Lifehouse feat. Natasha Bedingfield - Between the raindrops

Itís very important that you listen to the song first. And youíll have to know the 
melody, to be able to play it right. To get the rhythm right.

Capo on 4 fret.

                Intro and verse: (play one time without singing)

           G
E---------------------------------------------------|            kn
B---------------------------------------------------|
G------4-----------------------4----4---------------|
D-------------0----------0--------------------------|
A---------------------------------------------------|
E------3-------------3---------3----4---------------|
                                Look

          Bm
E--------------------------------------------|
B--------------------------------------------|
G------7----------------------7-----7--------|
D-------------0---------0--------------------|
A--------------------------------------------|
E------7-----------7---------7------7--------|
                             Around

          D
E--------------------------------------------------|
B--------------------------------------------------|
G-------11-------------------------11----11--------|
D---------------0-----------0----------------------|
A--------------------------------------------------|
E-------10----------10------------10-----10--------|
                   Thereís no one but

          A
E----------------------------------------------|
B----------------------------------------------|
G-------6--------------------6------6----------|
D--------------0--------0----------------------|
A----------------------------------------------|
E-------5----------5---------5------5----------|
                    You and me


(just keep playing the same, through the verse)

  G                         Bm          D                                      A
Right here and now, the way it was meant to be.
G                                       Bm
Thereís a smile on my face.
D                                   A           G                                         Bm
Knowing that together everything thatís in our way
D                                   A
Were better than alright

           Chorus:

          Bm                        G                        D                  A
E-----0--------------3-------------2-----------0----|
B-----3--------------3-------------3-----------3----|
G-----2--------------0-------------2-----------2----|
D-----0--------------0-------------0-----------2----|
A-----2--------------2-------------x-----------0----|
E-----0--------------3-------------x-----------0----|

     Bm
Walking between the raindrops

    G                                      D
Riding the aftershock beside you

   Bm
Off into the sunset

 G                                               D            A
Living like there's nothing left to lose

Bm
Chasing after gold mines

G                                            D
Crossing the fine lines we knew

Bm
Hold on and take a breath

G
I'll be here every step

D               A
Walking between the raindrops with you


Verse: (the same as the other verse)
Take me now

The world's such a crazy place

When the walls come down

You'll know I'm here to stay

There's nothing I would change

Knowing that together everything that's in our way

We're better than alright


Chorus:


Bridge: (Same as verse)
There's a smile on my face

Knowing that together everything that's in our way

We're better than alright


Chorus:

Outro:  (the chords and not the picking)
 A                                                     Bm
Between the raindrops with you
Tap to rate this tab
# A B C D E F G H I J K L M N O P Q R S T U V W X Y Z