Song name
# A B C D E F G H I J K L M N O P Q R S T U V W X Y Z

Lifehouse - Between The Raindrops tab

Lifehouse Between the Raindrops


Intro - Pick
e---------------|
b---------------|
g---------------|
d 2---5---9-\-7-|
a 3 -/-7--10--9-|
E xxxxxxxxxxxxx-|

Verse
e---------------|
b---------------|
g---------------|
d 2---5---9-\-7-|
a 3 -/-7--10--9-|
E xxxxxxxxxxxxx-|


Chorus
e----------3--2----|
b------1------3----|
g-2-----------2----|
d 2----2------0----|
a 0 ---3----2------|
E ----------3------|
Tap to rate this tab
 
# A B C D E F G H I J K L M N O P Q R S T U V W X Y Z