Song name
# A B C D E F G H I J K L M N O P Q R S T U V W X Y Z

Lifehouse - Take Me Away Acoustic tab

----------------------------------------------------------------------------
			     Take Me Away - Lifehouse
----------------------------------------------------------------------------
Tabbed by:Aras (MrA-Z_18)
Email:MrA-Z_18@hotmail.com

Tuning:

e|---------------5--10-9-----------------------|
B|---3--5-7--------------7----8-7h3---2-2------|
G|---------------------------------------------|
D|---------------------------------------------|
A|---------------------------------------------|
E|---------------------------------------------|

    E        A        C#           A
e|----------------------4-------------|
B|----------------------4-------------|
G|--1--------2----------6----------2--|
D|--2--------2----------6----------2--|       x2
A|--2-------------------4-------------|
E|------------------------------------|

 E        A             C#
This time all I want is you 
A                E
There is no one else 
A                 C#
Who can take your place 
E              A                 C#
This time you burn me with your eyes 
A                     E
You see past all the lies 
A                C#     A 
You take it all away 

    B#       C#
e|--2---------4------|
B|--2---------4------|
G|--4---------6------|
D|--4---------6------|
A|--2---------4------|
E|-------------------|

B#
I've seen it all 
B#
and it's never enough
C# 
It keeps leaving me needing you 

      E       B#      C#      F      Am
e|----7--------2-------4----------------|
B|----7--------2-------4-------------1--|
G|----9--------4-------6------3------2--|
D|----9--------4-------6------4------2--|
A|----7--------2-------4------4---------|
E|--------------------------------------|

        E     B#
Take me away 
        C#    E
Take me away 
                            B#
I've got nothing left to say 
     C#            F  Am
Just take me away

    E        A        C#           A
e|----------------------4-------------|
B|----------------------4-------------|
G|--1--------2----------6----------2--|
D|--2--------2----------6----------2--|      
A|--2-------------------4-------------|
E|------------------------------------|

E     A                 C#
I try to make my way to you 
     A              E
but still I feel so lost
 A               C#
I don't know what else I can do 


    B#       C#
e|--2---------4------|
B|--2---------4------|
G|--4---------6------|
D|--4---------6------|
A|--2---------4------|
E|-------------------|

B#
I've seen it all 
B#
and it's never enough
C# 
It keeps leaving me needing you 


      E       B#      C#      F      Am
e|----7--------2-------4----------------|
B|----7--------2-------4-------------1--|
G|----9--------4-------6------3------2--|
D|----9--------4-------6------4------2--|
A|----7--------2-------4------4---------|
E|--------------------------------------|

        E     B#
Take me away 
        C#    E
Take me away 
                            B#
I've got nothing left to say 
     C#            F  Am
Just take me away

     G#   A      G#       F#
e|---4----5------4--------2------|
B|---4----5------4--------2------|
G|---4----5------4--------2------|
D|---6----7------6--------4------|
A|---6----7------6--------4------|
E|---4----5------4--------2------|


G#                  A
Don't give up on me yet
G#                 F# 
Don't forget who I am
G#                   A 
I know I'm not there yet 
G#
But don't let 
             F#
me stay here alone 

e|-------2---------------2--0-3-2-5---7-9--7-10--9--------------|
B|---3--2--5-3-5-------0---------------------------7--3---------|
G|-----------------2--------------------------------------------|
D|--------------------------------------------------------------|
A|--------------------------------------------------------------|
E|--------------------------------------------------------------|



    E        A        C#           A
e|----------------------4-------------|
B|----------------------4-------------|
G|--1--------2----------6----------2--|
D|--2--------2----------6----------2--|   
A|--2-------------------4-------------|
E|------------------------------------|

 E        A             C#
This time all I want is you 
A                E
There is no one else 
A                 C#
Who can take your place 


  B#       C#
e|--2---------4------|
B|--2---------4------|
G|--4---------6------|
D|--4---------6------|
A|--2---------4------|
E|-------------------|

B#
I've seen it enough 
B#
and it's never enough
C# 
It keeps leaving me needing you 


      E       B#      C#      F      Am
e|----7--------2-------4----------------|
B|----7--------2-------4-------------1--|
G|----9--------4-------6------3------2--|
D|----9--------4-------6------4------2--|
A|----7--------2-------4------4---------|
E|--------------------------------------|

        E     B#
Take me away 
        C#    E
Take me away 
                            B#
I've got nothing left to say 
     C#            F  Am
Just take me away

----------------------------------------------------------------------------
Tap to rate this tab
# A B C D E F G H I J K L M N O P Q R S T U V W X Y Z