Song name
# A B C D E F G H I J K L M N O P Q R S T U V W X Y Z

Lifehouse - Stanley Climbfall tab

Stanley Climbfall - Lifehouse

Tuning: 1/2 step down

***Chords= sounds better when you play only the Bass-notes***

INTRO:
|--------------------------------------------------|
|-15-15-14\-------------------------10-10-10-10-10-|
|----------11-11-11-11-11-11-9-11-11---------------|
|--------------------------------------------------|
|--------------------------------------------------|
|--------------------------------------------------|

|------------------------------------------------------|
|-15-15-14\--------------------------------------------|
|----------11-11-11-11-11-11-9-------------------------|
|------------------------------11-11-11-11-11-12-12-12-|
|------------------------------------------------------|
|------------------------------------------------------|



Dsus2-A-Dsus2-A

Dsus2
quiet
A
seems like an honest world
Dsus2                                               A
you're begging for the beggars' bread when the money's out
Dsus2              A
stand, climb, and fall
A              Dsus2
you carry the world
Dsus2             A
can't carry your own

Dsus2
when the world is falling down
A
and another breaks and another falls
Dsus2                        A   
for losers always make the winners day


Dsus2               A    
stand, climb, and fall
A                 Dsus2
you carry the weight
Dsus2           A
can't carry it all

Em         Am
are you falling
F            C
are you faking
Em         Am
are you healing
F            C
are you breaking
Em         Am
am I burning
F            C
am I only melting
Em       Am     F          Em
these diamonds in the making

C                G     Am             
and I'm at the end of myself
F      G      Am  
anything you want
    C                 G   Am
and nothing seems to satisfy me
     F   G        Am 
take anything you want


Dsus2-A-Dsus2-A


Dsus2
quiet
A
a sound you know so well
Dsus2                                   A
you're living just to make it through another day
Dsus2              A
stand, climb, and fall
A              Dsus2
you carry the world
Dsus2            A  
can't carry your own

Em            Am
are you falling
F          C
are you faking
Em      Am
are you healing
F            C
are you breaking
Em        Am
am I burning
F             C
am I only melting
Em          Am     F        Em
these diamonds in the making

C              G      Am
and I'm at the end of myself
F      G      Am 
anything you want
    C                G    Am
and nothing seems to satisfy me
     F   G        Am 
take anything you want
     F   G        Am 
take anything you want
     F   G        Am 
take anything you want

Dsus2-A-Dsus2-A

Dsus2
quiet
Tap to rate this tab
# A B C D E F G H I J K L M N O P Q R S T U V W X Y Z