Song name
# A B C D E F G H I J K L M N O P Q R S T U V W X Y Z

Lifehouse - Broken tab

Tuning: Half-step down
No Capo

This is pretty accurate I think. Tell me what you think.

Intro:
eb|--------------------------------------------------|
Bb|--1-----------------------1-----------------------|
Gb|--0-----------------------0-----------------------|
Db|--3-----------------------2-----------------------|
Ab|--3--3--3--3--3--3--3--3--0--0--0--0--0--0--0--0--|
Eb|--------------------------------------------------|

eb|--------------------------------------------------|
Bb|--1-----------------------1-----------------------|
Gb|--0-----------------------0-----------------------|
Db|--3-----------------------2-----------------------|
Ab|--3--3--3--3--3--3--3--3--0--0--0--0--0--0--0--0--|
Eb|--------------------------------------------------|

eb|--------------------------------------------------|
Bb|--1-----------------------1-----------------------|
Gb|--0-----------------------0-----------------------|
Db|--3-----------------------2-----------------------|
Ab|--3--3--3--3--3--3--3--3--0--0--0--0--0--0--0--0--|
Eb|--------------------------------------------------|

eb|--------------------------------------------------|
Bb|--------------------------------------------------|
Gb|--------------------------------------------------|
Db|--2-----------------------0-----------------------|
Ab|--------------------------------------------------|
Eb|--3--3--3--3--3--3--3--3--3--3--3--3--3--3--3--3--|


Verse I:
eb|----------------------------------------------------|
Bb|----1-----------------------1-----------------------|
Gb|----0-----------------------0-----------------------|
Db|----3-----------------------2-----------------------|
Ab|----3--3--3--3--3--3--3--3--0--0--0--0--0--0--0--0--|
Eb|----------------------------------------------------|
     The broken clock is a comfort

eb|--------------------------------------------------|
Bb|--1-----------------------1-----------------------|
Gb|--0-----------------------0-----------------------|
Db|--3-----------------------2-----------------------|
Ab|--3--3--3--3--3--3--3--3--0--0--0--0--0--0--0--0--|
Eb|--------------------------------------------------|
     It helps me sleep tonight

eb|--------------------------------------------------|
Bb|--1-----------------------1-----------------------|
Gb|--0-----------------------0-----------------------|
Db|--3-----------------------2-----------------------|
Ab|--3--3--3--3--3--3--3--3--0--0--0--0--0--0--0--0--|
Eb|--------------------------------------------------|
     Maybe it can stop tomorrow

eb|--------------------------------------------------|
Bb|--------------------------------------------------|
Gb|--------------------------------------------------|
Db|--2-----------------------0-----------------------|
Ab|--------------------------------------------------|
Eb|--3--3--3--3--3--3--3--3--3--3--3--3--3--3--3--3--|
     From stealing all my time

eb|--------------------------------------------------|
Bb|--1-----------------------1-----------------------|
Gb|--0-----------------------0-----------------------|
Db|--3-----------------------2-----------------------|
Ab|--3--3--3--3--3--3--3--3--0--0--0--0--0--0--0--0--|
Eb|--------------------------------------------------|
     I am here still waiting

eb|----------------------------------------------------|
Bb|----1-----------------------1-----------------------|
Gb|----0-----------------------0-----------------------|
Db|----3-----------------------2-----------------------|
Ab|----3--3--3--3--3--3--3--3--0--0--0--0--0--0--0--0--|
Eb|----------------------------------------------------|
     Though I still have my doubts

eb|-----------------------------------------|
Bb|--1-----------------------1--------------|
Gb|--0-----------------------0--------------|
Db|--3-----------------------2--------------|
Ab|--3--3--3--3--3--3--3--3--0--0--0--0--0--|
Eb|-----------------------------------------|
     I am damaged at best

eb|-----------------------------------------------|
Bb|-----------------------------------------------|
Gb|-----------------------------------------------|
Db|--------------2-----------------0--------------|
Ab|--0--0--0--0-----------------------------------|
Eb|--------------3--3--3--3--3--3--3--3--3--3--3--|
     Like You've already figured out


Chorus I:
eb|-----------------------------------------|
Bb|-----------------1-----------------------|
Gb|-----------------0-----------------------|
Db|-----------------2-----------------------|
Ab|-----------------3--3--3--3--3--3--3--3--|
Eb|--3--3--3--3--3--------------------------|
     I'm falling apart

eb|--------------------------------------|
Bb|--------------1--------0--------------|
Gb|--------------0--------0--------------|
Db|--------------0--------0--------------|
Ab|--3--3--3--3--2--------2--------------|
Eb|--------------3--3--3--3--3--3--3--3--|
     I'm barely breathing

eb|-----------------------------------|
Bb|-----------------1-----------------|
Gb|-----------------0-----------------|
Db|-----------------2-----------------|
Ab|-----------------0--0--0--0--0--0--|
Eb|--3--3--3--3--3--------------------|
     With a broken heart

eb|-----------------------------------------|
Bb|-----------------1--------0--------------|
Gb|-----------------0--------0--------------|
Db|-----------------0--------0--------------|
Ab|--0--0--0--0--0--2--------2--------------|
Eb|-----------------3--3--3--3--3--3--3--3--|
     That's still bleeding

eb|--------------------------|
Bb|-----------1--------------|
Gb|-----------0--------------|
Db|-----------2--------------|
Ab|-----------3--3--3--3--3--|
Eb|--3--3--3-----------------|
     In the pain

eb|--------------------------------------|
Bb|-----------1-----------0--------------|
Gb|-----------0-----------0--------------|
Db|-----------0-----------0--------------|
Ab|--3--3--3--2-----------2--------------|
Eb|-----------3--3--3--3--3--3--3--3--3--|
     There is healing

eb|-----------------------------|
Bb|-----------1-----------------|
Gb|-----------0-----------------|
Db|-----------2-----------------|
Ab|-----------0--0--0--0--0--0--|
Eb|--3--3--3--------------------|
     In Your name

eb|--------------------------------------|
Bb|-----------1-----------0--------------|
Gb|-----------0-----------0--------------|
Db|-----------0-----------0--------------|
Ab|--0--0--0--2-----------2--------------|
Eb|-----------3--3--3--3--3--3--3--3--3--|
     I find meaning

eb|--------------------------------------------------------|
Bb|-----------------1-----------------------1--------------|
Gb|-----------------0-----------------------0--------------|
Db|-----------------3-----------------------2--------------|
Ab|-----------------3--3--3--3--3--3--3--3--0--0--0--0--0--|
Eb|--3--3--3--3--3-----------------------------------------|
     So I'm holdin' on

eb|-----------------------------------------------------|
Bb|--------------1-----------------------1--------------|
Gb|--------------0-----------------------0--------------|
Db|--------------3-----------------------2--------------|
Ab|--0--0--0--0--3--3--3--3--3--3--3--3--0--0--0--0--0--|
Eb|-----------------------------------------------------|
     I'm holdin' on

eb|-----------------------------------------------------|
Bb|--------------1-----------------------1--------------|
Gb|--------------0-----------------------0--------------|
Db|--------------3-----------------------2--------------|
Ab|--0--0--0--0--3--3--3--3--3--3--3--3--0--0--0--0--0--|
Eb|-----------------------------------------------------|
     I'm holdin' on

eb|--------------------------------|
Bb|--------------------------------|
Gb|--------------------------------|
Db|--------------2--------------0--|
Ab|--0--0--0--0--------------------|
Eb|--------------3--3--3--3--3--3--|
     I'm barely holdin' on to You

Verse II:
eb|-----------------------------------|
Bb|--------1------------------1-------|
Gb|--------0------------------0-------|
Db|--------3------------------2-------|
Ab|--------3------------------0-------|
Eb|-----------------------------------|
     The broken locks were a warning

eb|---------------------------|
Bb|---1------------------1----|
Gb|---0------------------0----|
Db|---3------------------2----|
Ab|---3------------------0----|
Eb|---------------------------|
     You got inside my head

eb|-----------------------------------------------------------|
Bb|-----1--------------------1--------------1-----------1-----|
Gb|-----0--------------------0--------------0-----------0-----|
Db|-----3--------------------2--------------2-----------0-----|
Ab|-----3--------------------0--------------x-----------x-----|
Eb|-----------------------------------------3-----------3-----|
     I tried my best to be guarded, I'm an open book instead

eb|---------------------------------------------------|
Bb|--1-------------------1--------1------------1------|
Gb|--0-------------------0--------0------------0------|
Db|--3-------------------2--------3------------2------|
Ab|--3-------------------0--------3------------0------|
Eb|---------------------------------------------------|
     I still see Your reflection, Inside of my eyes

eb|----------------------------------------------------------------|
Bb|---1---------------------1----------------------1----------1----|
Gb|---0---------------------0----------------------0----------0----|
Db|---3---------------------2----------------------2----------0----|
Ab|---3---------------------0----------------------x----------x----|
Eb|------------------------------------------------3----------3----|
     That are looking for purpose, They're still looking for life


Chorus II:
eb|----------------3-----------------3--------|
Bb|----------------1-----------------1--------|
Gb|----------------0-----------------0--------|
Db|----------------2-----------------0--------|
Ab|----------------3-----------------x--------|
Eb|----------------------------------3--------|
     I'm falling apart, I'm barely breathing

eb|-----------------3------------------3-------|
Bb|-----------------1------------------1-------|
Gb|-----------------0------------------0-------|
Db|-----------------2------------------0-------|
Ab|-----------------0------------------x-------|
Eb|------------------------------------3-------|
     With a broken heart that's still bleeding

eb|----------3-------------3-------|
Bb|----------1-------------1-------|
Gb|----------0-------------0-------|
Db|----------2-------------0-------|
Ab|----------3-------------x-------|
Eb|------------------------3-------|
     In the pain is there healing

eb|-----------3-----------3--------|
Bb|-----------1-----------1--------|
Gb|-----------0-----------0--------|
Db|-----------2-----------0--------|
Ab|-----------0-----------x--------|
Eb|-----------------------3--------|
     In Your name I find meaning

eb|------------------------------------------|
Bb|-----------------1---------------1--------|
Gb|-----------------2---------------0--------|
Db|-----------------3---------------2--------|
Ab|-----------------3---------------0--------|
Eb|------------------------------------------|
     So I'm holdin' on  (I'm still holdin')

eb|------------------------------3---------|
Bb|--------------1---------------1---------|
Gb|--------------2---------------0---------|
Db|--------------3---------------0---------|
Ab|--------------3---------------x---------|
Eb|------------------------------3---------|
     I'm holdin' on  (I'm still holdin')

eb|----------------------------------------|
Bb|--------------1---------------1---------|
Gb|--------------0---------------2---------|
Db|--------------2---------------3---------|
Ab|--------------0---------------3---------|
Eb|----------------------------------------|
     I'm holdin' on  (I'm still holdin')

eb|--------------3-----------------|
Bb|--------------1-----------------|
Gb|--------------0-----------------|
Db|--------------0-----------------|
Ab|--------------x-----------------|
Eb|--------------3-----------------|
     I'm barely holdin' on to You


Bridge:
eb|--------------3----3------3---|
Bb|--------------1----1------1---|
Gb|--------------0----0------0---|
Db|--------------2----x------2---|
Ab|--------------3----2------0---|
Eb|------------------------------|
     I'm hangin' on another day

eb|---3-----------0---------------------3----|
Bb|---1-----------1---------------------1----|
Gb|---0-----------2---------------------0----|
Db|---0-----------3---------------------x----|
Ab|---x-----------3---------------------2----|
Eb|---3--------------------------------------|
     Just to see what You will throw my way

eb|---3--------------3----------3--------3----|
Bb|---1--------------1----------1--------1----|
Gb|---0--------------0----------0--------0----|
Db|---0--------------2----------x--------2----|
Ab|---x--------------3----------2--------0----|
Eb|---3---------------------------------------|
     And I'm hanging on to the words You say

eb|----3-----------0---------3---|
Bb|----1-----------1---------1---|
Gb|----0-----------2---------0---|
Db|----0-----------3---------0---|
Ab|----x-----------3---------x---|
Eb|----3---------------------3---|
     You said that I will be okay


Verse III:
eb|---------------------------------------------------------|
Bb|----1------------------------1------1------------1-------|
Gb|----0------------------------0------0------------0-------|
Db|----3------------------------2------3------------2-------|
Ab|----3------------------------0------3------------0-------|
Eb|---------------------------------------------------------|
     The broken lights on the freeway left me here alone

eb|--------------------------------------------------------------|
Bb|---1------------------1---------------------------------1-----|
Gb|---0------------------0---------------------------------0-----|
Db|---3------------------2-------------------2-------------0-----|
Ab|---3------------------0---------------------------------------|
Eb|------------------------------------------3-------------3-----|
     I may have lost my way now, haven't forgotten my way home


Chorus III:
eb|----------------3-----------------3--------|
Bb|----------------1-----------------1--------|
Gb|----------------0-----------------0--------|
Db|----------------2-----------------0--------|
Ab|----------------3-----------------x--------|
Eb|----------------------------------3--------|
     I'm falling apart, I'm barely breathing

eb|-----------------3------------------3-------|
Bb|-----------------1------------------1-------|
Gb|-----------------0------------------0-------|
Db|-----------------2------------------0-------|
Ab|-----------------0------------------x-------|
Eb|------------------------------------3-------|
     With a broken heart that's still beating

eb|----------3-------------3-------|
Bb|----------1-------------1-------|
Gb|----------0-------------0-------|
Db|----------2-------------0-------|
Ab|----------3-------------x-------|
Eb|------------------------3-------|
     In the pain there is healing

eb|-----------3-----------3--------|
Bb|-----------1-----------1--------|
Gb|-----------0-----------0--------|
Db|-----------2-----------0--------|
Ab|-----------0-----------x--------|
Eb|-----------------------3--------|
     In Your name I find meaning

eb|------------------------------------------|
Bb|-----------------1---------------1--------|
Gb|-----------------2---------------0--------|
Db|-----------------3---------------2--------|
Ab|-----------------3---------------0--------|
Eb|------------------------------------------|
     So I'm holdin' on  (I'm still holdin')

eb|------------------------------3---------|
Bb|--------------1---------------1---------|
Gb|--------------2---------------0---------|
Db|--------------3---------------0---------|
Ab|--------------3---------------x---------|
Eb|------------------------------3---------|
     I'm holdin' on  (I'm still holdin')

eb|----------------------------------------|
Bb|--------------1---------------1---------|
Gb|--------------0---------------2---------|
Db|--------------2---------------3---------|
Ab|--------------0---------------3---------|
Eb|----------------------------------------|
     I'm holdin' on  (I'm still holdin')

eb|--------------3-----------------|
Bb|--------------1-----------------|
Gb|--------------0-----------------|
Db|--------------0-----------------|
Ab|--------------x-----------------|
Eb|--------------3-----------------|
     I'm barely holdin' on to You

eb|----------------------------------------|
Bb|--------------1---------------1---------|
Gb|--------------2---------------0---------|
Db|--------------3---------------2---------|
Ab|--------------3---------------0---------|
Eb|----------------------------------------|
     I'm holdin' on  (I'm still holdin')

eb|------------------------------3----------|
Bb|--------------1---------------1----------|
Gb|--------------2---------------0----------|
Db|--------------3---------------0----------|
Ab|--------------3---------------x----------|
Eb|------------------------------3----------|
     I'm holdin' on  (I'm still holdin')

eb|----------------------------------------|
Bb|--------------1---------------1---------|
Gb|--------------0---------------2---------|
Db|--------------2---------------3---------|
Ab|--------------0---------------3---------|
Eb|----------------------------------------|
     I'm holdin' on  (I'm still holdin')

eb|--------------3-----------------|
Bb|--------------1-----------------|
Gb|--------------0-----------------|
Db|--------------0-----------------|
Ab|--------------x-----------------|
Eb|--------------3-----------------|
     I'm barely holdin' on to You

Outro:
eb|---------------------------------|
Bb|--1---1---1---1---1---1----------|
Gb|--0---0---0---0---0---0---0---0--|
Db|--3---2---3---2---3---2---2---0--|
Ab|--3---0---3---0---3---0---x---x--|
Eb|--------------------------3---3--|
Tap to rate this tab
 
# A B C D E F G H I J K L M N O P Q R S T U V W X Y Z