Song name
# A B C D E F G H I J K L M N O P Q R S T U V W X Y Z

Lifehouse - Six Cycle Carousel tab

This is merely the intro to Six Cycle Carousel but I added a bit at the
 end of each riff that sounds right to me...do what you will

E------------------------------------------------------------------------|
B-----------------------0---------------------------0--------------------|
G---------------------0---0-----------------------0---0------------------|
D-----3-2-2-0-0-----2---------------3-2-2-0-0---2-------2----------------|
A---3-----------3-0---------------3-----------3--------------------------|
E-1-----------------------------1----------------------------------------|

                                       (Repeat) The lyrics come in the
                                       secind time this is played


E------------------------------------------------0---------|
B-----------------------0------------------------0---------|
G---------------------0---0----------------------1---------|
D-----3-2-2-0-0-----2----------------3-2-2-0-0---2---------|
A---3-----------3-0----------------3-----------3-2---------|
E-1------------------------------1---------------0---------|
Tap to rate this tab
 
# A B C D E F G H I J K L M N O P Q R S T U V W X Y Z