Song name
# A B C D E F G H I J K L M N O P Q R S T U V W X Y Z

Lifehouse - Come Back Down tab

I'm not sure how correct this tab is in a
scale of 100, but this is what I figured.

PLEASE NOTE: This is my third tab of my OWN,
but don't think any less of it.


DRUMS


INTRO & VERSE:
(x2)    (x2)

1---13---11---------13---11---|
2-----------11----------------|
3----------------13-----------|
4-----------------------------|
5-----------------------------|
6-----------------------------|     x4


PRE-CHORUS:

1-------------------|
2-------------------|
3-----------3-------|
4---4---6---3---6---|
5---4---6---1---6---|
6---2---4-------4---|


CHORUS:

1-------------------|
2-------------------|
3---6-------8-------|
4---6---4---8---4---|
5---4---4---6---4---|
6-------2-------2---|     x2

INTRO & VERSE:
(x2)    x2)


PRE-CHORUS:


CHORUS:


BRIDGE:

1-----------|-------|
2-----------|-------|
3-----------|---6---|
4---6---8---|---6---|
5---6---8---|---4---|
6---4---6---|-------|
 (x3)


SOLO:

1---------------------|--------------------------------------------|
2---6h7p6-9-6h7p6-----|--------------------------------------------|
3-----------------6---|--------------------------------------------|
4---------------------|---8.8.8---10.10.10---11.11.11---13.13.13---|
5---------------------|--------------------------------------------|
6---------------------|--------------------------------------------|
    (x3)                  (x4)


CHORUS:
(Soft, first half)


CHORUS:
(Normal, second half)

END ON:

1-------|
2-------|
3---4---|
4---6---|
5---6---|
6-------|


I think that's it. It sounds
a bit strange and out without the
music, but fine with it. Anyway, please
tell me what you think in the comments
section and rate!

Thank you     = )
Tap to rate this tab
 
# A B C D E F G H I J K L M N O P Q R S T U V W X Y Z