Guitaretab - guitar tabs
Song name
# A B C D E F G H I J K L M N O P Q R S T U V W X Y Z

Lifehouse - Blind Acoustic tab

Artist - Lifehouse
Song - Blind (Acoustic)
Tuning - Drop D


Intro
e|-----------------------------------------------------------------------------|
B|-----------------------------------------------------------------------------|
G|-------------------------------------------11-9-11-11-11-11-2-2-2-2-2-2-2-2--|
D|-9-9-7-7-9-9-9-11-9-7--6-6-4-4-6-6-6-7-7-/-x--x-x--x--x--x--2-2-2-2-2-2-2-2--|
A|-7-7-7-7-7-7-7-7--7-7--4-4-4-4-4-4-4-4-4-/-9--7-9--9--9--9--x-x-x-x-x-x-x-x--|
D|-7-7-7-7-7-7-7-7--7-7--4-4-4-4-4-4-4-4-4---0--0-0--0--0--0--2-2-2-2-2-2-2-2--|

Verse 1
e|-----------------------------------------------------------------------------|
B|-----------------------------------------------------------------------------|
G|-------------------------------------------11-9-11-11-11-11-2-2-2-2-2-2-2-2--|
D|-9-9-7-7-9-9-9-11-9-7--6-6-4-4-6-6-6-7-7-/-x--x-x--x--x--x--2-2-2-2-2-2-2-2--|
A|-7-7-7-7-7-7-7-7--7-7--4-4-4-4-4-4-4-4-4-/-9--7-9--9--9--9--x-x-x-x-x-x-x-x--|
D|-7-7-7-7-7-7-7-7--7-7--4-4-4-4-4-4-4-4-4---0--0-0--0--0--0--2-2-2-2-2-2-2-2--|

e|-----------------------------------------------------------------------------|
B|-----------------------------------------------------------------------------|
G|-------------------------------------------11-9-11-11-11-11-2-2-2-2-2-2-2-2--|
D|-9-9-7-7-9-9-9-11-9-7--6-6-4-4-6-6-6-7-7-/-x--x-x--x--x--x--2-2-2-2-2-2-2-2--|
A|-7-7-7-7-7-7-7-7--7-7--4-4-4-4-4-4-4-4-4-/-9--7-9--9--9--9--x-x-x-x-x-x-x-x--|
D|-7-7-7-7-7-7-7-7--7-7--4-4-4-4-4-4-4-4-4---0--0-0--0--0--0--2-2-2-2-2-2-2-2--|

Riff before 1st chorus
e|------------------------------------------------------------------------------------------------------|
B|------------------------------------------------------------------------------------------------------|
G|-11-11-11-11-11-11-11-11/-18-18-18-18-18-18-18-18-\-13-13-13-13-13-13-13-13-\-11-11-11-11-11-11-11-11-|
D|-x--x--x--x--x--x--x--x---x--x--x--x--x--x--x--x----x--x--x--x--x--x--x--x----x--x--x--x--x--x--x--x--|
A|-9--9--9--9--9--9--9--9-/-16-16-16-16-16-16-16-16-\-11-11-11-11-11-11-11-11-\-9--9--9--9--9--9--9--9--|
D|-0--0--0--0--0--0--0--0---0--0--0--0--0--0--0--0----0--0--0--0--0--0--0--0----0--0--0--0--0--0--0--0--|


Chorus 1
A              F#m11
After all this time
Dsus2
I never thought we'd be here
F#m11
Never thought we'd be here
        A                F#m11
When my love for you was blind
    Dsus2
But I couldn't make you see it
F#m11
Couldn't make you see it


Cut out of Chorus 1
e|---------------------------------------------------|
B|---------------------------------------------------|
G|-11-11-11-11-11-11-11-11/-18-18-18-18-18-18-18-18--|
D|-x--x--x--x--x--x--x--x---x--x--x--x--x--x--x--x---|
A|-9--9--9--9--9--9--9--9-/-16-16-16-16-16-16-16-16--|
D|-0--0--0--0--0--0--0--0---0--0--0--0--0--0--0--0---|
[ Tab from: http://www.guitaretab.com/l/lifehouse/59462.html ]
Verse 2
e|-----------------------------------------------------------------------------|
B|-----------------------------------------------------------------------------|
G|-------------------------------------------11-9-11-11-11-11-2-2-2-2-2-2-2-2--|
D|-9-9-7-7-9-9-9-11-9-7--6-6-4-4-6-6-6-7-7-/-x--x-x--x--x--x--2-2-2-2-2-2-2-2--|
A|-7-7-7-7-7-7-7-7--7-7--4-4-4-4-4-4-4-4-4-/-9--7-9--9--9--9--x-x-x-x-x-x-x-x--|
D|-7-7-7-7-7-7-7-7--7-7--4-4-4-4-4-4-4-4-4---0--0-0--0--0--0--2-2-2-2-2-2-2-2--|

e|-----------------------------------------------------------------------------|
B|-----------------------------------------------------------------------------|
G|-------------------------------------------11-9-11-11-11-11-2-2-2-2-2-2-2-2--|
D|-9-9-7-7-9-9-9-11-9-7--6-6-4-4-6-6-6-7-7-/-x--x-x--x--x--x--2-2-2-2-2-2-2-2--|
A|-7-7-7-7-7-7-7-7--7-7--4-4-4-4-4-4-4-4-4-/-9--7-9--9--9--9--x-x-x-x-x-x-x-x--|
D|-7-7-7-7-7-7-7-7--7-7--4-4-4-4-4-4-4-4-4---0--0-0--0--0--0--2-2-2-2-2-2-2-2--|

Riff before 2nd chorus
e|----------------------------------------------------------------------------|
B|----------------------------------------------------------------------------|
G|-11-11-11-11-11-11-11-11/-18-18-18-18-18-18-18-18-\-13-13-13-13-13-13-13-13-|
D|-x--x--x--x--x--x--x--x---x--x--x--x--x--x--x--x----x--x--x--x--x--x--x--x--|
A|-9--9--9--9--9--9--9--9-/-16-16-16-16-16-16-16-16-\-11-11-11-11-11-11-11-11-|
D|-0--0--0--0--0--0--0--0---0--0--0--0--0--0--0--0----0--0--0--0--0--0--0--0--|


Chorus 2
A              F#m11
After all this time
Dsus2
I never thought we'd be here
F#m11
Never thought we'd be here
        A                F#m11
When my love for you was blind
    Dsus2
But I couldn't make you see it
F#m11
Couldn't make you see it
    F#m          D
That I loved you more
            A    F#m11
Than you'll ever know
    F#m        D
And part of me died
     A     F#m11
When I let you go


Bridge
Dsus2,Bm,F#m,F#m11


Chorus 3
A              F#m11
After all this why
      Dsus2
Would you ever wanna leave it
F#m11
Maybe you could not believe it
        A                F#m11
That my love for you was blind
      Dsus2
But I couldn't make you see it
F#m11
Couldn't make you see it
    F#m          D
That I loved you more
            A    F#m11
Than you'll ever know
    F#m        D
And part of me died
     A     F#m11
When I let you go
   F#m          D
And I loved you more
            A    F#m11
Than you'll ever know
    F#m        D
And part of me died
     A     F#m11
When I let you go

Outro
e|---------------------------------------------------------------------------------|
B|---------------------------------------------------------------------------------|
G|-11-11-11-11-11-11-11-11/-18-18-18-18-18-18-18-18-\-13-13-13-13-13-13-13-13-\-11-|
D|-x--x--x--x--x--x--x--x---x--x--x--x--x--x--x--x----x--x--x--x--x--x--x--x----x--|
A|-9--9--9--9--9--9--9--9-/-16-16-16-16-16-16-16-16-\-11-11-11-11-11-11-11-11-\-9--|
D|-0--0--0--0--0--0--0--0---0--0--0--0--0--0--0--0----0--0--0--0--0--0--0--0----0--|
Related for Blind Acoustic tab
Advertisement will be closed in 10 seconds