Song name
# A B C D E F G H I J K L M N O P Q R S T U V W X Y Z

Lifehouse - Chapter One tab

Tabbed by Don Vongviphut (chaching37@hotmail.com)
Bored and tabbed it...correct as far as I'm concerned
Standard Tuning

A
]--------------2---------------------------------------------------------|
]--2-4-2-4-2-4---4-2-4-2-4---------------------------4-2-----------------|
]--------------------------3-1-----1-2-1---------1-------3---1-2-1-------|
]------------------------------4-4-------4---1-4---1-------4-------4-4-4-|
]------------------------------------------4-----------------------------|
]------------------------------------------------------------------------|

B
]------------------------------------------------------------------------|
]-4-4-4-------------------2-----------------2----------------------------|
]-------4-4-4-1-3-1-3-1-3---3-1-----1----------3-1---1-3-1---------------|
]-------------------------------4-4---1-1-1--------4-------4-4-4---------|
]------------------------------------------------------------------------|
]------------------------------------------------------------------------|
Tap to rate this tab
# A B C D E F G H I J K L M N O P Q R S T U V W X Y Z