Song name
# A B C D E F G H I J K L M N O P Q R S T U V W X Y Z

Lifelover - Herrens Hand tab

Band:    Lifelover
Album:   Pulver
Song:    Herrens Hand

http://www.lifelover.se/


Originally transcribed By: (Carl(Thesadpartofthestory))
Email:          (Jag_calle__@hotmail.com)

Upgraded by:    Vettigen_Dr33 (De_Gilles)
Email:          gilles_mortier@hotmail.com


.  - palm mute           /  - slide up to
\  - slide down to       ~  - vibrato
h  - hammer on           b  - Bend
p  - pull off            Suffixes for bend
t  - tap                 f  - full bend    h - half bend
ph - pinched harmonic    q  - quarter bend t - tap bend
*  - see comment         ^  - Hold bend    r release bend
x  - Stuccatto           ~  - vibrato bend
,  - slight palm mute    () - ghost note, sustained note
"  - tremolo note        <> - Trill

Tuning E A D G B E


Intro/Background riff.

First riff.
|-------------------------------------------------------------------|
|-------------------------------------------------------------------|
|-------------------------------------------------------------------|
|-----2----2----2----2----2----2----2----2--------------------------|
|---2----2----2----2----3----3----3----2----------------------------|
|-0----0----0----0----3----3----3----3------------------------------|

Second Riff.

2nd guitar.
|-------------------------------------------------------|
|-------------------------------------------------------|
|-------------------------------------------------------|
|-2-2-2-2-2-2-2-2-2-5-5-5---------------5-5-5-4h5p4-4---|
|-------------------------3-3-3-3-3-3-3-----------------|
|-------------------------------------------------------|



|-------------------------------------------------------|
|-------------------------------------------------------|
|---------------------------------------5-5-5-4h5p4-4---|
|-2-2-2-2-2-2-2-2-2-5-5-5-------------------------------|
|-------------------------3-3-3-3-3-3-3-----------------|
|-------------------------------------------------------|

Third riff


|-----8-7-7-7-7-7-7-7-7-7-7-7-8-7-7-7-7-7-0-0-0-----------------------|
|--------------------------------------------------5------------------|
|-----------------------------------------------7---------------------|
|---------------------------------------------------------------------|
|---------------------------------------------------------------------|
|---------------------------------------------------------------------|

x 3
|---7s8-7-7-7-7-7-7-7-7-7-7-7-8-7-7-7-7-7-0-0-0-----------------------|
|--------------------------------------------------5------------------|
|-----------------------------------------------7---------------------|
|---------------------------------------------------------------------|
|---------------------------------------------------------------------|
|---------------------------------------------------------------------|



Credit to original tabber, i just added some things and made it sound better
(imho)

Plz comment if there are still some flaws ^^
Tap to rate this tab
# A B C D E F G H I J K L M N O P Q R S T U V W X Y Z