Guitaretab - guitar tabs
Song name
# A B C D E F G H I J K L M N O P Q R S T U V W X Y Z

Lifelover - Vardagsnytt tab

Very easy and nice song from Lifelover. This one only has 3 different riffs, I will 
them down for you to play and then you can find the structure by listening to the song (very 
one anyways).

Riff 1

e----------------------------------------------------------|
B----------------------------------------------------------|
G-----------------------------------2----2----2--------2---|
D------2----2----2--------2-------3----3----3----3--3------|
A----3----3----3----3--3-----------------------------------|
E----------------------------------------------------------|
[ Tab from: http://www.guitaretab.com/l/lifelover/174965.html ]
e---------------------------------------------------------|
B---------------------------------------------------------|
G---------------------------------------------------------|
D------2----2----2--------2-------------------------------|
A----3----3----3----3--3----------3-----3-----2--------2--|
E------------------------------5-----5-----3-----3--3-----|


Riff 2


e-----------------------------------------------------------------------|
B-----------------------------------------------------------------------|
G-----------------------------------------------------------------------|
D----7---7---7---7---7---7---7---7-------5---5---5---5---3---3---3---3--|
A----7---7---7---7---7---7---7---7-------5---5---5---5---3---3---3---3--|
E----5---5---5---5---5---5---5---5-------3---3---3---3---1---1---1---1--|


Riff 3

e-------------------------------------------------------|
B-------------------------------------------------------|
G-------------------------------------------------------|
D-------2----2----2----2--------------------------------|
A----0----0----0----0-----------2----2--------3-----3---|
E----------------------------3-----3-------1-----1------|
Related for Vardagsnytt tab
Advertisement will be closed in 10 seconds