Song name
# A B C D E F G H I J K L M N O P Q R S T U V W X Y Z

Lifelover - Vardagsnytt tab

Help us improve GuitareTab! Take a short survey!
There is no tab for the little solo so here you go!

^ = bend
/ = slide up

E ---------------------------------|
b ---------------------------------|
g ------------------------10-10-9--|
d --10-999999-10-10-7777-----------|
a ---------------------------------|
e ---------------------------------|


E ---------------------------------|
b ---------------------------------|
g ------------------------10-10-9--|
d --10-999999-10-10-9999-----------|
a ---------------------------------|
e ---------------------------------|


E ---------------------------------|
b ---------------------------------|
g ------------------------10-10-9--|
d --10-999999-10-10-7777-----------|
a ---------------------------------|
e ---------------------------------|


E ------------------------------------------|
b ------------------------------------------|
g ------------------------10-10-9-9^--9/21--|
d --10-999999-10-10-9999--------------------|
a ------------------------------------------|
e ------------------------------------------|
Related for Vardagsnytt tab