Guitaretab - guitar tabs
Song name
# A B C D E F G H I J K L M N O P Q R S T U V W X Y Z

Lifelover - Konvulsion tab

Lifelover  Konvulsion

INTRO GUITAR 2 (clean)
E |--------------------------------------------------------|
b |--------------------------------------------------------|
g |--------------------------------------------------------|
d |--000000000000-3333-2222222222222222--------------------|
a |--------------------------------------------------------|
e |--------------------------------------------------------|

INTRO GUITAR 1 (clean)
E |-----------------------------------------------|
b |-----6r----6r----------------------------------|
g |----7-----7-----4-5r---4-5r--------------------|
d |--7-----7-----2-------2------------------------|
a |-----------------------------------------------|
e |-----------------------------------------------|
[ Tab from: http://www.guitaretab.com/l/lifelover/180465.html ]
INTRO GUITAR 3 (dist)
E |-----------------------------------------------|
b |-----------------------------------------------|
g |-----------------------------------------------|
d |--0r----2r----0r----2r-------------------------|
a |-----------------------------------------------|
e |-----------------------------------------------|

A STRANGE SOUND
E |--------------------|
b |--------------------|
g |--7r----5r--2r------|
d |--------------------|
a |--------------------|
e |--------------------|

Then all is repeated but on the end this comes
E |----------------------------------------------------------|
b |----------------------------------------------------------|
g |----------------------------------------------------------|
d |--777777777777--5555--2222222222222222--------------------|
a |--555555555555--3333--0000000000000000--------------------|
e |----------------------------------------------------------|
Related for Konvulsion tab