Guitaretab - guitar tabs
Song name
# A B C D E F G H I J K L M N O P Q R S T U V W X Y Z

Lifelover - Stockholm tab

Lifelover  Stockholm

INTRO GUITAR 2
E |-------------------------------------------------|
b |-------------------------------------------------|
g |-------------------------------------------------|
d |-------------------------------------------------|
a |-----3---3-----3---3------2---2-----2---2--------|
e |--00---0----00---0----00---0----00---0-----------|

GUITAR 1
E |----------------------------------------------------------|
b |----------------------------------------------------------|
g |--777777777777-55-44----------44444444--------------------|
d |---------------------22222222-----------------------------|
a |----------------------------------------------------------|
e |----------------------------------------------------------|

E |----------------------------------------------------------|
b |----------------------------------------------------------|
g |--777777777777-55-44--------------------------------------|
d |---------------------22222222-55555555--------------------|
a |----------------------------------------------------------|
e |----------------------------------------------------------|

E |--555555555555-33-22-------------------------------------|
b |---------------------0000000000000000--------------------|
g |---------------------------------------------------------|
d |---------------------------------------------------------|
a |---------------------------------------------------------|
e |---------------------------------------------------------|

VERSE
E |---------------------------------------------------------|
b |---------------------------------------------------------|
g |---------------------------------------------------------|
d |----------------------------2222-5555--------------------|
a |--3333333333333333-22222222------------------------------|
e |---------------------------------------------------------|
[ Tab from: http://www.guitaretab.com/l/lifelover/180468.html ]
BREAK GUITAR 2
E |-------------------------------------------------|
b |-------------------------------------------------|
g |-------------------------------------------------|
d |-------------------------------------------------|
a |-----3---3-----3---3------2---2-----2---2--------|
e |--00---0----00---0----00---0----00---0-----------|

BREAK GUITAR 1
E |--555555555555-33-22-------------------------------------|
b |---------------------0000000000000000--------------------|
g |---------------------------------------------------------|
d |---------------------------------------------------------|
a |---------------------------------------------------------|
e |---------------------------------------------------------|

E |----------------------------------------------------------|
b |----------------------------------------------------------|
g |--777777777777-55-44----------44444444--------------------|
d |---------------------22222222-----------------------------|
a |----------------------------------------------------------|
e |----------------------------------------------------------|

BUILD UP
E |----------------------------------------------------------|
b |----------------------------------------------------------|
g |----------------------------------------------------------|
d |--44444444--55555555--------------------------------------|
a |--22222222--33333333--2222222222222222--------------------|
e |----------------------0000000000000000--------------------|
                         ****************
OUTRO GUITAR 2 (CLEAN)
E |----------------------------------------------------------|
b |----------------------------------------------------------|
g |----------------------------------------------------------|
d |---------------------------------------------|------------|
a |--22222222--33333333--------------------------------------|
e |---------------------0000000000000000---------------------|

OUTRO GUITAR 1 (DIST)
E |---------------------------------------------------------|
b |---------------------------------------------------------|
g |---------------------------------------------------------|
d |---------------------------------------------------------|
a |--22222222-3333-7777-------------------------------------|
e |---------------------0000000000000000--------------------|
Related for Stockholm tab