Song name
# A B C D E F G H I J K L M N O P Q R S T U V W X Y Z

Lifer - Boring tab

-------------------------------------------------------------------------------
			     BORING - Lifer
-------------------------------------------------------------------------------

By:Michael Assunto
This is my first tab guys, I think it's pretty much correct

Intro
e|---------------------------------------------------------------------
B|---------------------------------------------------------------------
G|-5-5-5---------------------------------------------------------------
D|-5-5-5---3-x-3-------------------------------------------------------
A|-3-3-3-x-1-x-1-------------------------------------------------------
E|-3-3-3-x-1-x-1-------------------------------------------------------

Repeat 4 times then the verse goes like this
Verse
e|---------------------------------------------------------------------
B|---------------------------------------------------------------------
G|-5-5-5---------------------------------------------------------------
D|-5-5-5---3-x-3-------------------------------------------------------
A|-3-3-3-x-1-x-1-------------------------------------------------------
E|-3-3-3-x-1-x-1-------------------------------------------------------
  all palm muted repeat 8 times
 
Pre-Chorus
e|-------------------------------------------------------------
B|-------------------------------------------------------------
G|-55555555555/77777777777/88888888888-------------------------
D|-xxxxxxxxxxx/xxxxxxxxxxx/xxxxxxxxxxx-------------------------
A|-33333333333/55555555555/66666666666-------------------------
E|-------------------------------------------------------------

Chorus

e|-------------------------------------------------------------
B|-------------------------------------------------------------
G|-55555555/888888888/777777777--------------------------------
D|-xxxxxxxx/xxxxxxxxx/xxxxxxxxx--------------------------------
A|-33333333/666666666/555555555--------------------------------
E|-------------------------------------------------------------

Break
He uses some kind of effect here
e|-------------------------------------------------------------
B|-------------------------------------------------------------
G|-5-5--5-5--5-5--5-5--5-5-------------------------------------
D|-5-5--5-5--5-5--5-5--5-5-------------------------------------
A|-3-3--3-3--3-3--3-3--3-3-------------------------------------
E|-------------------------------------------------------------

Then Nick screams ohhhhhhhhhhh!!
e|-------------------------------------------------------------
B|-------------------------------------------------------------
G|-5-5--5-5--5-5--5-5--5-5-------------------------------------
D|-5-5--5-5--5-5--5-5--5-5-------------------------------------
A|-3-3--3-3--3-3--3-3--3-3-------------------------------------
E|-3-3--3-3--3-3--3-3--3-3-------------------------------------

Then Back to Pre-Chorus then Chorus
Tap to rate this tab
# A B C D E F G H I J K L M N O P Q R S T U V W X Y Z