Song name
# A B C D E F G H I J K L M N O P Q R S T U V W X Y Z

Lifer - Breathless tab

Tuning (Low to High): B F# B E G# C#
That's dropped, 1 and a half steps down, I believe.

Intro (After 5,4,3,2,1)
/w wah
----------------------------------------------------------------------
----------------------------------------------------------------------
-7-7-7-7-7-7-7-7-7-7-3-3-3-3-3-3-3-3-3-3-3-5-5-5-5-5-5-5-5-5-5-7-7-7--
-x-x-x-x-x-x-x-x-x-x-x-x-x-x-x-x-x-x-x-x-x-x-x-x-x-x-x-x-x-x-x-x-x-x--
-5-5-5-5-5-5-5-5-5-5-1-1-1-1-1-1-1-1-1-1-1-3-3-3-3-3-3-3-3-3-3-5-5-5--
----------------------------------------------------------------------

Verse (these are all harmonics) Repeat as necessary
------------------
------------------
------------------
-5-5-5-5-5-5-5-5--
------------------
------------------

Pre-Chorus (after "0" and during "Breathe, Can't Breathe")
--------------------------------------------------------------------------
--------------------------------------------------------------------------
--------------------------------------------------------------------------
-0-0-0-0-0-0-10-10-0-0-0-0-0-0-10-10-0-0-0-0-0-0-10-10-0-0-0-0-0-0-10-10--
-0-0-0-0-0-0-8--8--0-0-0-0-0-0-8--8--0-0-0-0-0-0-8--8--0-0-0-0-0-0-8--8---
-0-0-0-0-0-0-8--8--0-0-0-0-0-0-8--8--0-0-0-0-0-0-8--8--0-0-0-0-0-0-8--8---

Chorus ("I am suffocating....") Repeat as necessary
------------------------------
------------------------------
------------------------------
-3-3-5-5-5-5-0-0-10-10-10-10--
-3-3-3-3-3-3-0-0-8--8--8--8---
-3-3-2-2-2-2-0-0-8--8--8--8---

And now you know all the parts to the song. Just put them together.
Tap to rate this tab
# A B C D E F G H I J K L M N O P Q R S T U V W X Y Z