Song name
# A B C D E F G H I J K L M N O P Q R S T U V W X Y Z

Lifer - Perfect tab

Lifer
Perfect a.k.a Perfect (Acoustic)
Tabbed by U B the band
Tuning C# G# C# F# A# D#

Intro PLAY 2 TIMES
D#|------0------------------0-------------------0--------------0------------|
A#|------0------------------0-------------------0--------------0------------|
F#|--4/6-6--------------4/6-6---------------5/7-7--------------4------------|
C#|--2/4-4--------------2/4-4---------------5/7-7--------------2------------|
G#|--2/4-4--------------2/4-4---------------3/5-5--------------2------------|
C#|--2/4-4--------------2/4-4-------------------0--------------2------------|

Verse 1
D#|--0--0---0---------0---0------------0--0---0---------0----0--------------|
A#|--0--0---0---------0---0------------0--0---0---------0----0--------------|
F#|--6--6---6---------6---6------------6--6---6---------6----6--------------|
C#|--4--4---4--x--x---4---4---x--x---x-4--4---4--x--x---4----4--x--x---x----|
G#|--4--4---4--x--x---4---4---x--x---x-4--4---4--x--x---4----4--x--x---x----|
C#|--4--4---4--x--x---4---4---x--x---x-4--4---4--x--x---4----4--x--x---x----|

D#|--0--------------------------------0-------------------------------------|
A#|--0--------------------------------0-------------------------------------|
F#|--7--------------------------------4-------------------------------------|
C#|--7--------------------------------2-------------------------------------|
G#|--5--------------------------------2-------------------------------------|
C#|--0--------------------------------2-------------------------------------|

Verse 1 (slight change)
D#|--0--0---0---------0---0---0--0-0---0--0---0---------0----0---0--0-------|
A#|--0--0---0---------0---0---0--0-0---0--0---0---------0----0---0--0-------|
F#|--6--6---6---------6---6---6--6-6---6--6---6---------6----6---6--6-------|
C#|--4--4---4--x--x---4---4---4--4-4-x-4--4---4--x--x---4----4---4--4-------|
G#|--4--4---4--x--x---4---4---4--4-4-x-4--4---4--x--x---4----4---4--4-------|
C#|--4--4---4--x--x---4---4---4--4-4-x-4--4---4--x--x---4----4---4--4-------|

D#|--0--------------------------------0-------------------------------------|
A#|--0--------------------------------0-------------------------------------|
F#|--7--------------------------------4-------------------------------------|
C#|--7--------------------------------2-------------------------------------|
G#|--5--------------------------------2-------------------------------------|
C#|--0--------------------------------2-------------------------------------|

Pre Chorus
D#|--0-----------------0----------------------------------------------------|
A#|--0-----------------0-------------------3--------------------------------|
F#|--6---------------4-6-------------------2--------------------------------|
C#|--4---------------2-4----------------2--0------------0--h2----4--2--4----|
G#|--4---------------2-4----------------2--0------------0--h2----4--2--4----|
C#|--4---------------2-4----------------2--0------------0--h2----4--2--4----|

Chorus PLAY 4 TIMES
D#|--0----------------0----------------0------------------------------------|
A#|--0----------------0----------------0----------------3-------------------|
F#|--6----------------9----------------4----------------4-------------------|
C#|--4----------------7----------------2----------------4-------------------|
G#|--4----------------7----------------2----------------2-------------------|
C#|--4----------------7----------------2------------------------------------|

Post Chorus
D#|------0------------------0-------------------0--------------0------------|
A#|------0------------------0-------------------0--------------0------------|
F#|--4/6-6--------------4/6-6---------------5/7-7--------------4------------|
C#|--2/4-4--------------2/4-4---------------5/7-7--------------2------------|
G#|--2/4-4--------------2/4-4---------------3/5-5--------------2------------|
C#|--2/4-4--------------2/4-4-------------------0--------------2------------|

Verse PLAY 2 TIMES
D#|--0--0---0---------0---0------------0--0---0---------0----0--------------|
A#|--0--0---0---------0---0------------0--0---0---------0----0--------------|
F#|--6--6---6---------6---6------------6--6---6---------6----6--------------|
C#|--4--4---4--x--x---4---4---x--x---x-4--4---4--x--x---4----4--x--x---x----|
G#|--4--4---4--x--x---4---4---x--x---x-4--4---4--x--x---4----4--x--x---x----|
C#|--4--4---4--x--x---4---4---x--x---x-4--4---4--x--x---4----4--x--x---x----|

D#|--0--------------------------------0-------------------------------------|
A#|--0--------------------------------0-------------------------------------|
F#|--7--------------------------------4-------------------------------------|
C#|--7--------------------------------2-------------------------------------|
G#|--5--------------------------------2-------------------------------------|
C#|--0--------------------------------2-------------------------------------|

Pre Chorus
D#|--0-----------------0----------------------------------------------------|
A#|--0-----------------0-------------------3--------------------------------|
F#|--6---------------4-6-------------------2--------------------------------|
C#|--4---------------2-4----------------2--0------------0--h2----4--2--4----|
G#|--4---------------2-4----------------2--0------------0--h2----4--2--4----|
C#|--4---------------2-4----------------2--0------------0--h2----4--2--4----|

Chorus PLAY 4 TIMES
D#|--0----------------0----------------0------------------------------------|
A#|--0----------------0----------------0----------------3-------------------|
F#|--6----------------9----------------4----------------4-------------------|
C#|--4----------------7----------------2----------------4-------------------|
G#|--4----------------7----------------2----------------2-------------------|
C#|--4----------------7----------------2------------------------------------|

Bridge
D#|-----------------------------------------0-------------------------------|
A#|-----------------------------------------0-------------------------------|
F#|--6------------6------------6------------6----------4--------------------|
C#|--4------------4------------4------------4----------2--------------------|
G#|--4------------4------------4------------4----------2--------------------|
C#|--4----------2-4----------2-4----------2-4----------2--------------------|

Bridge (part 2) PLAY 3 TIMES
D#|-------------------------------------------------------------------------|
A#|-------------------------------------------------------------------------|
F#|--6------------------------------------4---------------------------------|
C#|--4------------------------------------2---------------------------------|
G#|--4------------------------------------2---------------------------------|
C#|--4------------------------------------2---------------------------------|

Bridge
D#|--0------------------------------------0--------0------------------------|
A#|--0------------------------------------0--------0------------------------|
F#|--6------------------------------------9--------4------------------------|
C#|--4------------------------------------7--------2------------------------|
G#|--4------------------------------------7--------2------------------------|
C#|--4------------------------------------7--------2------------------------|

Bridge (part 3) PLAY 2 TIMES
D#|--0------------------------------------0--------0------------------------|
A#|--0------------------------------------0--------0------------------------|
F#|--6------------------------------------9--------4------------------------|
C#|--4------------------------------------7--------2------------------------|
G#|--4------------------------------------7--------2------------------------|
C#|--4------------------------------------7--------2------------------------|

Bridge
D#|--0------------------------------------0--------0------------------------|
A#|--0------------------------------------0--------0------------------------|
F#|--6------------------------------------9--------4------------------------|
C#|--4------------------------------------7--------2------------------------|
G#|--4------------------------------------7--------2------------------------|
C#|--4------------------------------------7--------2------------------------|

Outro
D#|--------------------0-------------------------0--------------------------|
A#|--------------------0-------------------------0--------------------------|
F#|--6------------6----6-------6------------6----6--------------------------|
C#|--4------------4----4-------4------------4----4--------------------------|
G#|--4------------4----4-------4------------4----4--------------------------|
C#|--4----------2-4----4-----2/4----------2/4----4--------------------------|

Finished!
Tap to rate this tab
 
# A B C D E F G H I J K L M N O P Q R S T U V W X Y Z