Song name
# A B C D E F G H I J K L M N O P Q R S T U V W X Y Z

Lifer - No Need tab

 Drop D,
 D,A,D,G,B,e


 Main:

|--------------------------------------------------
|--------------------------------------------------
|--------------------------------------------------
|---2-2---2-2---2-2--0-----------------------------
|---2-2---2-2---2-2--0-----------------------------
|---2-2---2-2---2-2- 0-----------------------------

Part 1:
 I no need...
|--------------------------------------------------
|--------------------------------------------------
|--------------------------------------------------
|----5-----0----4----4-----------------------------
|---5-----0----2----4------------------------------
|--5-----0----2----4-------------------------------

Part 2:
 Don't lie to me...

|--------------------------------------------------
|--------------------------------------------------
|--------------------------------------------------
|--5--5--5---0--0--0---4--4--4---4--4--4-----------
|--5--5--5---0--0--0---2--2--2---4--4--4-----------
|--5--5--5---0--0--0---2--2--2---4--4--4-----------

Break down

e|----------------------------------------------------
b|---0-0-0-0-0-0-0------------------------------------
g|---4-4-4-4-4-4-4---(bend, creating a phaser effect)-

Part 3:
 im not too sure about this part

|---------------------------------------------------------
|------------------------2h4------------------2-----------
|--------------------2h4------------------2h4----2--------
|--4-----4-4----2---------------4-4----0------------------
|--4-----4-4----2---------------4-4----0------------------
|--4-----4-4----2---------------4-4----0------------------
Tap to rate this tab
# A B C D E F G H I J K L M N O P Q R S T U V W X Y Z