Song name
# A B C D E F G H I J K L M N O P Q R S T U V W X Y Z

Lifer - White Lines Dont Do It tab

-------------------------------------------------------------------------------
                             "White Lines (Don't Do It)" - Driver
-------------------------------------------------------------------------------

Tabbed by: blakeg14
Email: blakeg14@yahoo.com

Tuning: Drop D (D,A,D,G,B,e)

This song is a cover by Driver, A.K.A. Lifer, A.K.A. Strangers With Candy.

Main riff

E|------------------------------|
B|------------------------------|
G|------------------------------|
D|-0-2-0-2-0-2-0-2-(2)-x--------|
A|-0-2-0-2-0-2-0-2-(2)-x--------|
D|-0-2-0-2-0-2-0-2-(2)-x--------|

Repeated throughout entire song...

Riff with octaver effect - utilizes double hammer-ons, as fast as "grace" notes 1:04

           10x               Fill played once at 2:54 (can also play same scale on
8th fret of G string with octaver)

E|-------------------||------------------------|
B|-------------------||------------------------|
G|-------------------||-7-5--------------------|
D|-7-5-0h5h7-5-------||------7-5---------------|
A|-------------------||-----------7-5\3-(0)----|
D|-------------------||------------------------|


"Higher baby..." Bridge at 1:20
E|------------------------------------------|
B|------------------------------------------|
G|------------------------------------------|
D|-7-7-7--x7-7-7-/10---7-7-7--7-7-7---------|
A|-7-7-7--x7-7-7-/10---7-7-7--7-7-7---------|
D|-7-7-7--x7-7-7-/10---7-7-7--7-7-7---------|
 pm.....

************************************

| /   slide up
| \   slide down
| h   hammer-on
| p   pull-off
| ~   vibrato
| +   harmonic
| x   Mute note
| b   Bend
| pb  Pre-bend
| br  Bend release
| pbr Pre-bend release
| brb Bend release bend
| pm  Palm mute

************************************
Tap to rate this tab
# A B C D E F G H I J K L M N O P Q R S T U V W X Y Z