Song name
# A B C D E F G H I J K L M N O P Q R S T U V W X Y Z

Liferuiner - Xsuck My Dickx tab

Liferuiner - xSuck My Dickx


The song is played in Drop A.

|--------------------|
|--------------------|
|--------------------| 
|0-----Let it ring---|
|0-------------------|
|0-------------------|


|---------------------|
|---------------------|
|---------------------|
|---------------------|
|000-0000-0-000-0000-0|
|000-0000-0-000-0000-0|
 ... .... . ... .... .

|---------------------|
|---------------------|
|---------------------|
|-------------------2*| >2x<
|000-0000-0-000-0000--|
|111-1111-1-111-1111--|
 ... .... . ... ....

|---------------------|
|---------------------|
|7*\------------------|
|-----0---------------|
|-----0--let it ring--|
|-----0---------------|

|---------------------|
|---------------------|
|---------------------|
|---------------------|
|000-0000-0-000-0000-0|
|000-0000-0-000-0000-0|
 ... .... . ... .... .
|---------------------|             
|---------------------|
|---------------------|
|---------------------|
|0-0------------------|
|0-0------------------|

|---------------------|
|---------------------|
|---------------------|
|77-7-55-77-----------|
|55-5-33-55-66--------|
|-----------66--------|

|---------------------|
|---------------------|
|---------------------|
|77-7-55-77-----------|
|55-5-33-55-6666\-----|
|-----------6666\-----|

|----------------------|
|------5---------------|
|------8---------------| (16x)
|00000-----------------|
|00000-----------------|
|00000-----------------|
 .....

And I think you can figure out the last part of the song for yourself. It's pretty easy.
Tap to rate this tab
# A B C D E F G H I J K L M N O P Q R S T U V W X Y Z