Song name
# A B C D E F G H I J K L M N O P Q R S T U V W X Y Z

Ligabue Luciano - Questa ? La Mia Vita tab

AB
QUESTA ? LA MIA VITA (Luciano Ligabue)


[MIm] G----4/12-----------------\11--

[RE]  G----4/12---------12/14\12-11--

[DO]  G----4/12------------------11--

INTRO
SOL(x3) SOL4x3 SOL*x8   DO7+x3  DOx3  DO9x8   MImx3 MImb6x3 MIm7x8
e---------------------------------------------------------------
B-0------1------3--------0------1------3-------0------1------3--
G-0------0------0--------0------0------0-------0------0------0--
D-0----------------------2---------------------2----------------
A-2----------------------3---------------------2----------------
E-3--------------------------------------------0----------------

[RE4] [RE]     
e-----3---3-2--------
B----3---------3-----
G---2---2--------2---(2 volte)
D--0---------0-------
A--------------------
E--------------------

G----4/12-----
[SOL] Questa ? la mia vita, se ho bisogno te lo dico

G----4/12------------------12/14-----11--
D-----------------------12-------12------
[DO] Sono io che guido, io che vado fuori strada

G----4/12------------------12---------------11------------12/14\12-11----------12/14\12-11--
D------------------------------------------------12/14\12-------------12/14\12--------------
[MIm] Sempre io che pago, non ? mai successo che pa[RE4]gasse[RE]ro per [RE4] me[RE]


G----4/12---------------------11------------
[SOL] Questa ? la mia vita, se entri chiedimi permesso

G----4/12------------------12/14-12--11--
D-----------------------12---------------
[DO]Portami a una gita, fammi ridere di gusto

G----4/12------------------11-----------------------12/14\12-11----------12/14\12-11--
D-----------------------12-----------------12/14\12-------------12/14\12--------------
[MIm] Porta la tua vita che vediamo che succede a [RE4] mesco[RE]larle un [RE4] po? [RE]


B---------------------------12--------------10-----
G---------------------9--12--------------9------9--
Ed ora che ci [LAm7] sei, dato che ci [DO] sei

e-----------------------------------------------7---------
B------------------12----12--------------7---7-----7-------
G---------------------12----12-------------7---------7-----
Fammi fare un [SOL] giro su chi [RE/FA#] non son stato [LAm7] mai

B---------------------------12--------
G---------------------9--12-----------
Dato che ci [DO7+] sei... come io vor[SOL]rei!

(ripeti Intro)
SOL(x3) SOL4x3 SOL*x8   DO7+x3  DOx3  DO9x8   MImx3 MImb6x3 MIm7x8
[RE4] [RE] [RE4] [RE]

[SOL] Questa ? la mia vita, sono quello che ci pensa
[DO] Porta un paio d?ore, una notte bella densa
[MIm] Trattamela bene, che al momento ho solo questa
e [RE4]poi ved[RE]remo [RE4]poi [RE]

[SOL] Questa ? la mia vita, certi giorni non si batte
[DO] certi altri meno, ? cos? che va per tutti
[MIm] Certi giorni ? poca, certi giorni sembra troppa
e in[RE4]vece [RE]non lo ? [RE4]mai [RE]

E ora che ci [LAm7] sei, dato che ci [DO] sei
Fammi fare un [SOL] giro su chi [RE/FA#] non son stato [LAm7] mai
Dato che ci [DO7+] sei... come io vor[SOL]rei!

(ripeti Intro)
SOL(x3) SOL4x3 SOL*x8   DO7+x3  DOx3  DO9x8   MImx3 MImb6x3 MIm7x8
[RE4] [RE] [RE4] [RE]

[SOL] Questa ? la mia vita, tieniteli tu i consigli
[DO] Io non l?ho capita, figurati se tu fai meglio
[MIm] Porta la tua vita che vediamo che succede
a [RE4] mesco[RE]larle un [RE4]po? [RE4]
 
Ma ora che ci [LAm7] sei, dato che ci [DO] sei
Fammi fare un [SOL] giro su chi [RE/FA#] non son stato [LAm7] mai
Dato che ci [DO7+] sei... come io vor[SOL]rei!

(ripeti Intro)
SOL(x3) SOL4x3 SOL*x8   DO7+x3  DOx3  DO9x8   MImx3 MImb6x3 MIm7x8
[RE4] [RE] [RE4] [RE] [SOL]

******************
SOL*=32003x
MImb6=02201x

*************************************

SOLO ACCORDI

[MIm][RE][DO]
SOL SOL4 SOL*   DO7+  DO  DO9   MIm MImb6 MIm7
[RE4] [RE] [RE4] [RE]

[SOL] Questa ? la mia vita, se ho bisogno te lo dico
[DO] Sono io che guido, io che vado fuori strada
[MIm] Sempre io che pago, non ? mai successo che pa[RE4]gasse[RE]ro per [RE4] me[RE]

[SOL] Questa ? la mia vita, se entri chiedimi permesso
[DO]Portami a una gita, fammi ridere di gusto
[MIm] Porta la tua vita che vediamo che succede a [RE4] mesco[RE]larle un [RE4] po? [RE]

Ed ora che ci [LAm7] sei, dato che ci [DO] sei
Fammi fare un [SOL] giro su chi [RE/FA#] non son stato [LAm7] mai
Dato che ci [DO9] sei... come io vor[SOL]rei!

(ripeti Intro)
SOL SOL4 SOL*   DO7+  DO  DO9   MIm MImb6 MIm7
[RE4] [RE] [RE4] [RE]

[SOL] Questa ? la mia vita, sono quello che ci pensa
[DO] Porta un paio d?ore, una notte bella densa
[MIm] Trattamela bene, che al momento ho solo questa
e [RE4]poi ved[RE]remo [RE4]poi [RE]

[SOL] Questa ? la mia vita, certi giorni non si batte
[DO] certi altri meno, ? cos? che va per tutti
[MIm] Certi giorni ? poca, certi giorni sembra troppa
e in[RE4]vece [RE]non lo ? [RE4]mai [RE]

E ora che ci [LAm7] sei, dato che ci [DO] sei
Fammi fare un [SOL] giro su chi [RE/FA#] non son stato [LAm7] mai
Dato che ci [DO9] sei... come io vor[SOL]rei!

(ripeti Intro)
SOL SOL4 SOL   DO7+  DO  DO9   MIm MImb6 MIm7
[RE4] [RE] [RE4] [RE]

[SOL] Questa ? la mia vita, tieniteli tu i consigli
[DO] Io non l?ho capita, figurati se tu fai meglio
[MIm] Porta la tua vita che vediamo che succede
a [RE4] mesco[RE]larle un [RE4]po? [RE4]
 
Ma ora che ci [LAm7] sei, dato che ci [DO] sei
Fammi fare un [SOL] giro su chi [RE/FA#] non son stato [LAm7] mai
Dato che ci [DO7+] sei... come io vor[SOL]rei!

(ripeti Intro)
SOL SOL4 SOL*   DO7+  DO  DO9   MIm MImb6 MIm7
[RE4] [RE] [RE4] [RE] [SOL]
Tap to rate this tab
# A B C D E F G H I J K L M N O P Q R S T U V W X Y Z