Song name
# A B C D E F G H I J K L M N O P Q R S T U V W X Y Z

Ligabue - Sar Un Bel Souvenir tab

Luciano Ligabue – Sarà un bel souvenir Guitar Solo

2/02/2008 Italy - Borgomanero
Posed By: Guitar Hero (Tia)

e------------------------------19^^19-19^^19-19^^19------------|      ^^=bend
b---15^-15^-15^-15^^15-----------------------------------------|  up and down
g-----------------------14-------------------------------------|
d--------------------------------------------------------------|
a--------------------------------------------------------------|
e--------------------------------------------------------------|

e--------------------------------------17^^-15-17-15---------------|
b-------------------15-17^^-15-17----------------------------------|
g-----------14-16--------------------------------------------------|
d---14/16----------------------------------------------------------|
a------------------------------------------------------------------|
e------------------------------------------------------------------|

e---15------------------------------------------------------------|
b-------17-15-----------------------12-----12-15/17---------------|
g---------------16-14/12---------------12-------------------------|
d---------------------------14--14--------------------------------|
a-----------------------------------------------------------------|
e-----------------------------------------------------------------|

e---19^-15-------------------------------------------------|
b----------------------------------------------------------|
g------------12-14-16-17-16-14-12---------4---7---6---9----| played in tapping
d----------------------------------------------------------|
a----------------------------------------------------------|
e----------------------------------------------------------|

e---20-19-17-15-17-15---------------------------------------|
b---------------------------15-17-15------------------------|
g---------------------------------------16-14-16--------12*-|
d--------------------------------------------------16-------|
a-----------------------------------------------------------|
e-----------------------------------------------------------|
                                                 *fall off with leva
It isn’t corrected 100% but it sound good.
Tap to rate this tab
# A B C D E F G H I J K L M N O P Q R S T U V W X Y Z