Song name
# A B C D E F G H I J K L M N O P Q R S T U V W X Y Z

Ligabue - Leggero tab

Assolo di “Leggero” di Ligabue


E------------------------------------------------------|   
B------------------------------------------------------|     
G—5h7b9-9p7p5h7--/5--7-7--9---7--5---2---0-------------|
D------------------------------------------------------|
A------------------------------------------------------|
E------------------------------------------------------|

E------------------------------------------------------|   
B------------------------------------------------------|     
G--12/14—14-12--9--7--5--7--9--7--5---12b14------------|
D------------------------------------------------------|
A------------------------------------------------------|
E------------------------------------------------------|

E------------------------------------------------------|   
B--/13-13-13-13----13-15b17p15~------------------------|     
G---------------14-------------------------------------|
D------------------------------------------------------|
A------------------------------------------------------|
E------------------------------------------------------|


E--------------------------------------------------------|   
B--------------------------------------------------------|     
G---/14--12----------------------------------------------|
D-----------14--12--10--12--14--------12h14p12---10---12-|
A-------------------------------15~----------------------|
E--------------------------------------------------------|

E--------------------------------------------------------|   
B----------------13~—15b17p15--13------------------------|     
G-10/12-12---14------------------14--14-12--9--7----5----|
D--------------------------------------------------------|
A--------------------------------------------------------|
E--------------------------------------------------------|

e--------------------------------------------------------|   
B--------------------------------------------------------|
G—0h2--5--5--7-7-7~--0h2--5-5—7b8-9-9---0h2-5-5-7-7-7~---|
D--------------------------------------------------------|
A--------------------------------------------------------|
E--------------------------------------------------------|


e--------------------------------------------------------|   
B--------------------------------------------------------|
G—-0h2--5—5-5/9-9~----------------12h14-12h14-12—9p7p5---|
D--------------------------------------------------------|
A--------------------------------------------------------|
E------------------3h5/8/7~/5~/3~~-----------------------|

e--------------------------------------------------------|
B------13----13-15—------------17-17-17--13~-------------|
G—-/12----12---------12----12----------------------------|
D-----------------------14-------------------------------|
A--------------------------------------------------------|
E----------------------------------------3h5/8/7/5/3-----|sfumare…

Tap to rate this tab
# A B C D E F G H I J K L M N O P Q R S T U V W X Y Z