Song name
# A B C D E F G H I J K L M N O P Q R S T U V W X Y Z

Ligabue - Libera Nos tab

#

Date: Thu, 26 Sep 1996 07:44:24 +0200
From: Paolo Ruggeri 
Subject: Libera Nos A Malo - L.Ligabue 


               LIBERA NOS A MALO - Luciano Ligabue
                 Tabbed by Enrico "Rujo" Ruggeri

Intro                           (7 times)                        / / / =20
|------------8-8-7-7---------7----|-----------8-8-7-7---------7------|
|--10-10-------------10-8-10---10-|-10-10-------------10-8-10---10---|
|--------7-7----------------------|-------7-7------------------------|
|---------------------------------|----------------------------------|
|---------------------------------|----------------------------------|
|---------------------------------|----------------------------------|

 D5 A5 G5 C5 Slowly
 D5 A5 G5 C5
 D5 A5 G5 C5
 D5 A5 G5 C5
 D5 A5 G5 C5

 D5(II) A5 G5 C5
 D5(II) A5 G5 C5
 D5(II) A5 G5 C5
 D5(II) A5 G5 A5

Chorus:

 Libera nos a malo        Per=F2 il mio male qual'=E8            (4 times)
|--------------------------------------------------------------------|
|--------------------------------------------------------------------|
|----------------------------------------5---------------------------|
|---------------7-------0-0--------------5------3-2----3-2-----------|
|--------5-4----7--3-5--2-2--------------3----------3------3---------|
|------------5--5-------3-3----1-----3-------------------------------|

 Intro
 Chorus

|------|--------------------------------------------------------------|
|-12/--|--------------------------------------------------------------|
|------|------------10---------------10-12-------------10-------------|
|------|------10-12----12------10-12-10-12-------10-12----12----12-10-|
|------|-sl12---------------12--------------sl12-------------12-------|
|------|--------------------------------------------------------------|

                            +    +   +     +     +     +     +    +
|-------------|-Improvise-|-------------------------------------------|
|-------------|-D---------|-13-8-12-8---------------------------------|
|-12-12-10-12-|-pentatonic|----------14-10-12-10----------------------|
|-12-12-10-12-|-minor-----|----------------------15-10-14-10----------|
|-------------|-----------|----------------------------------14-8-10-8|
|-------------|-----------|-------------------------------------------|

   NH                       Finale
|------|                   |----------------------------------|
|--7---|  D5 A5 G5 C5      |----------------------------------|
|--7---|  D5 A5 G5 C5      |---7-7--7-7------------------7----|
|--7---|  D5 A5 G5 C5      |---7-7--7-7--7-7-------------7----|
|--7---|  D5 A5 G5 C5      |---5-5--5-5--7-7-----3---3---5----|
|------|  CHORUS TWICE     |-------------5-5---3---3----------|

legenda.

/    tremolo bar
+    right hand tapping
NH   Natural Harmonics

Comments/corrections to 
Tap to rate this tab
# A B C D E F G H I J K L M N O P Q R S T U V W X Y Z