Song name
# A B C D E F G H I J K L M N O P Q R S T U V W X Y Z

Ligabue - Radiofreccia tab

RADIOFRECCIA(tema)
tab by Chiara13792

[1]
------------------------------------------------|
-----------------1--3----------------------1--0-|
-------0--2--0---0--2---2--4--2--0-----0---0--0-|
-0--2------------3--0---------------2------3--2-|
-----------------4--0----------------------4--2-|
------------------------------------------------|
[2]
-------------------3--2-------------------------------------|
----------------1--------3-----------------------1--1--0----|
-------0--2--0--0----------2--2--4--2--0-----0---0--0--0--0-|
-0--2-----------3-------------------------2-----------------|
----------------4-------------------------------------------|
------------------------------------------------------------|
[3]
----------------------------------------------------------|
--0-----------3--1-----------------------------------1--3-|
--0--0--0--------0--0--0--------------0--------------0--2-|
--0--------2-----3--------------0--2-----2--0--------3--0-|
--2--------------4--------0--2-----------------0--2--4--0-|
--3-------------------------------------------------------|

[4]
---------------------------------------------3-----------3-|
-----------------1--3---------------1--0-----0--0--0--1--0-|
-------0--2--0---0--2---2--4--2--0--0--0--0--0--0--0--0--0-|
-0--2------------3--0------------------------0-----------0-|
-----------------4--0------------------------2-----------2-|
---------------------------------------------3-----------3-|
[5]
-3--3--3--3--3--2--2--0--2--3--2--0--2--5--3-|
-3--3--3--3--3--3--3--3--3--3--3--3--3--6--4-|
-2--2--2--2--2--2--2--2--2--2--2--2--4--6--4-|  x2
-------------------------------------4--6--4-|
-------------------------------------2--5--3-|
---------------------------------------------|

repeat [4],[1],[2],[3],[4],[5],[4]
Tap to rate this tab
# A B C D E F G H I J K L M N O P Q R S T U V W X Y Z