Song name
# A B C D E F G H I J K L M N O P Q R S T U V W X Y Z

Ligabue - Piccola Stella Senza Cielo tab

PICCOLA STELLA SENZA CIELO

G7+: 320002

Tune:A
Bm:x24432  B2:x24422  G:320033  D:xx0232  D7+:xx0222  A:x02220

Riff 1 (chitarra a 12 corde):
E-----------------------------------------------------------------|
B-------------------------------------7---------------------------|
G---7--9--7--11---7--9--7----7--9--7-----7--9--7------------------|
D-------------------------------------------------11--7-----------|
A-----------------------------------------------------------------|
E-----------------------------------------------------------------|

Riff 2 (chitarra a 12 corde):
E-----------------------------------7--------|
B--------------------------10-----------10---|
G---7--9--7--11---7--9--7------(7)-----------|
D--------------------------------------------|
A--------------------------------------------|
E--------------------------------------------|

E-------------------------------|
B-------------------------------|
G-7--9--7--11--7---9--7---------|
D------------------------11--7--|
A-------------------------------|
E-------------------------------|

Intro: Bm B2 Bm B2 G  D D7+ D D7+ A G  x6
Il B2 e il D7+ sono solo di passaggio; l'intro e' suonata alla
prima battuta solo da Liga alla chitarra, poi da Liga e Fede, poi
con Mel (terza battuta, riff 1 e 2), Rigo (quarta) e Robby
(quinta)
------------------------------------------------------------------

Intro: /Bm7 / G7+ / D / A G/

Bm         G7+
Cosa ci fai
   D
In mezzo a tutta
A      G
Questa gente

Bm             G7+
  Sei tu che vuoi
     D             A      G
O in fin dei conti non ti frega niente

Tanti ti cercano
Spiazzati da una luce senza futuro.
Altri si allungano
Vorrebbero tenerti nel loro buio

Ti brucerai
Piccola stella senza cielo.
Ti mostrerai
Ci incanteremo mentre scoppi in volo
Ti scioglierai
Dietro a una scia un soffio, un velo
Ti staccherai
Perche' ti tiene su soltanto un filo, sai

Tieniti su le altre stelle son disposte
Solo che tu a volte credi non ti basti
Forse capitera' che ti si chiuderanno gli occhi ancora
O soltanto sara' una parentesi di una mezz'ora

Ti brucerai
Piccola stella senza cielo.
Ti mostrerai
Ci incanteremo mentre scoppi in volo
Ti scioglierai
Dietro a una scia un soffio, un velo
Ti staccherai
Perche' ti tiene su soltanto un filo, sai


Intro (e conclusione):

E //---5-------|--------------|
B ||-----------|7--5----------|
G ||7-----7-7--|------7--6-7--|
D ||-----------|--------------|   2 volte
A ||-----------|--------------|
E \\-----------|--------------|

I strofa (solo basso):

G //------------|---------------|
D ||------------|---------------|
A ||2-2---------|5-5------------|
E \\-----3-3-3--|-----5-5--3-3--|

Ritornello:

E //------7-------|------3-------|--------------|--5------3----|
B ||----7----7----|----3----3----|------3-------|----5------3--|
G ||--7--------7--|--4--------4--|----2----2----|--------------|
D ||9-------------|5-------------|--4--------4--|7------5------|  4 volte
A ||--------------|--------------|5-------------|--------------|
E \\--------------|--------------|--------------|--------------|

II strofa:

Accordi trasportati avanti di un'ottava

  Bm  G   D   A   G
E 14  10  14  12  10
B 15  12  15  14  12
G 16  12  14  14  12
D  X   X   X   X   X
A  X   X   X   X   X
E  X   X   X   X   X

Ritornello (come sopra)

Poi:

E //----5----5--|----5----5--|----5-------|--------------|
B ||------------|------------|-------5b&r-|7-7-5-5-7-5---|
G ||7-7----7----|7-7----7----|7-7---------|------------7-|
D ||------------|------------|------------|--------------|
A ||------------|------------|------------|--------------|
E \\------------|------------|------------|--------------|
(b&r=bend & relase)

Un ultimo ritornello e chiude come l'intro!
Tap to rate this tab
# A B C D E F G H I J K L M N O P Q R S T U V W X Y Z