Song name
# A B C D E F G H I J K L M N O P Q R S T U V W X Y Z

Ligabue - Figlio Dun Cane tab

Help us improve GuitareTab! Take a short survey!
FIGLIO D'UN CANE- LIGABUE

TAB DI: KINGO92

Amo questa canzone e il suo assolo, e vedendo che la tab non si trovava da nessuna parte 
sono affidato al mio orecchio...mi sembra che giri quindi ho pensato di proporvela... 
mia prima tab  l'ho fatta di fretta..quindi non prendetevela se non fa proprio al caso vostro!!

grazie


e:-----------------------------------------------------------9-10-11-12--------|
B:--8brb---------------------------------12r-10-12-10h1212b------------10-10v-|
G:-----------------------9-9v11p9--9h11---------------------------------------|
D:-----------7v-7h99/11-------------------------------------------------------|
A:-------7h9-------------------------------------------------------------------|
E:-----------------------------------------------------------------------------|

e:--------------------------12b-12bv-10\---------------------------------------|
B:--7br-5v-5h7-10v-10-12p10----------------17b-17b-17bvv-----------------------|
G:-----------------------------------------------------------------------------|
D:-----------------------------------------------------------------------------|
A:-----------------------------------------------------------------------------|
E:-----------------------------------------------------------------------------|


h=hammer
p=pull off
b=bend 1 tono
r=release
/=slide
v=vibrato
vv=vibrato con leva
Related for Figlio Dun Cane tab