Song name
# A B C D E F G H I J K L M N O P Q R S T U V W X Y Z

Ligabue - Da Marzia tab

-----------------------------------------------------------|
-----------------------------------------------------------|
-----------------------------------------------------------|
------5-7--5---7/9--9/12---7-9-7-5----------9p7------------|
-5h7-------------------------------7--7/10-------10--------|
-----------------------------------------------------------|

-----------------------------------------------------------|
-----------------------------------------------------------|
-----------------------------------------------------------|
------5-7--5---14p12-9---7-9-7-5----------9p7--------------|
-5h7-----------------------------7--7/10-------10----------|
-----------------------------------------------------------|

F# - F# - F#/G -  F#    F# - F# - F#/G -  F#

--------------------------------------------------------------------|
--------------------------------------------------------------------|
-12-12-12-12-12-11--11---9-11-12-11-9-7---7/14--12------------------|
--------------------------------------------------------------------|
--------------------------------------------------------------------|
--------------------------------------------------------------------|

--------------------------------------------------------------------|
--------------------------------------------------------------------|
-12-12-12-12-12-14--/11---9-11-12-11-9-7---7/14--12-----------------|
--------------------------------------------------------------------|
--------------------------------------------------------------------|
--------------------------------------------------------------------|
Tap to rate this tab
# A B C D E F G H I J K L M N O P Q R S T U V W X Y Z