Song name
# A B C D E F G H I J K L M N O P Q R S T U V W X Y Z

Ligabue - Urlando Contro Il Cielo tab

Help us improve GuitareTab! Take a short survey!
Urlando contro il cielo (live)

Ligabue

Italian translation

> = slittare col dito ... lo ha scritto la Letizia!

p = premere picchiando col dito senza usare il plettro 



1|---2--------0--------------0-------------------|
2|-----2------5-------0---3----3-----------------|
3|------------6---2-1-----2------2---1-1-1-1-2-1-|
4|------------6---2-2-----0----------2-2-2-2-2-2-|
5|-------2->4-----2------------------2-----------|
6|----------------0------------------0-----------|


1|--2--------0-------------0-------2-2-2-2--2--2--2--2--0-|
2|----2------5-------0---3---3-----3-3-3-3--3--3--3--3--3-|
3|-----------6---2-1-----2-----2---2-2-2-2--2--2--2--2--2-|
4|-----------6---2-2-----0---------0-0-0-0--0--0--0--0--0-|
5|------2->4-----2----------------------------------------|
6|---------------0----------------------------------------|


1|----------------------------2-0----------------------|
2|---2-p3---2-p3---2-p3---2-3-----3-----2-0----3-2---0-|
3|---4----4-4----4-4------4---------4---2-2-2--1---2---|
4|---4------4------4------4-------------0-0----2---2---|
5|---------------------------------------------2---2---|
6|---------------------------------------------0---0---|

1|------------------------12--12-----------------------|
2|--10----12--12--10--10--10--10---10--10--12--12--10--|
3|---9-----9---9---9---9---9---9----9---9---9---9---9--|
4|--11----11------11------11--------0---0---0---0---0--|
5|---0-----0-------0-------0---------------------------|
6|-----------------------------------------------------|

1|--10---9------10---9-----|
2|--10--10--10--10--10--10-|
3|---9---9------11--11-----|
4|---0---0-------0---0-----|
5|-------------------------|
6|-------------------------|

1|------------------------12--12-----------------------|
2|--10----12--12--10--10--10--10---10--10--12--12--10--|
3|---9-----9---9---9---9---9---9----9---9---9---9---9--|
4|--11----11------11------11--------0---0---0---0---0--|
5|---0-----0-------0-------0---------------------------|
6|-----------------------------------------------------|

1|--10---9------10---9-----|------|
2|--10--10--10--10--10--10-|--10--|
3|---9---9------11--11-----|---9--|    Fine dell' INTRO
4|---0---0-------0---0-----|--11--|
5|-------------------------|---0--|
6|-------------------------|------|








1|------------------------------------------|
2|------------------------------------------|
3|--7-7--7-7--7-7--7-7--9-9--9-9--9-9--9-9--|
4|--7-7--7-7--7-7--7-7--9-9--9-9--9-9--9-9--|
5|--5-5--5-5--5-5--5-5--7-7--7-7--7-7--7-7--|
6|------------------------------------------|

1|--
2|--
3|-- ecc...
4|--
5|--
6|--



see you soon!
Related for Urlando Contro Il Cielo tab