Song name
# A B C D E F G H I J K L M N O P Q R S T U V W X Y Z

Ligabue - Un Colpo Allanima tab

Un Colpo All Anima
Ligabue

Solo

E|-----------------------------------------------------------|
B|-----------------------------------------------------------|
G|-----------------------------------------------------------|
D|-------------------------------------------------------5---|
A|----7--5-7-7-5-7---7--5-7-7-5-7---7--5-7-7-5-7-----5-----7-|
E|--0--------------0--------------0--------------5-7---7-----|

E|-----------------------------------------------------------|
B|-----------------------------------------------------------|
G|-----------------------------------------------------------|
A|-------------------------------------------------------5---|
D|----7--5-7-7-5-7---7--5-7-7-5-7---7--5-7-7-5-7-----5-----7-|
E|--0--------------0--------------0--------------5-7---7-----|


by a.L.k.
Tap to rate this tab
 
# A B C D E F G H I J K L M N O P Q R S T U V W X Y Z