Song name
# A B C D E F G H I J K L M N O P Q R S T U V W X Y Z

Ligabue - E tab

-------------------------------------------------------------------------------
			     E - Ligabue
-------------------------------------------------------------------------------
Tabbed by: jeffy2
Email: jeffy2@hotmail.it

Ho fatto tutto ad orecchio..spero sia giusta.
Contattatemi se avete miglioramenti! :D  ENJOY!

Tuning: Standard

Intro: Bass

(chord: Fa,La#,Rem)

0:32

e|--------------------------------------------------------------------------|
B|--------------------------------------------------------3-----------------|
G|-------5-----------7----------------------------------3-------3-----------|
D|---5-----------7----------3---3---3---3---3---3----5----------3-----------|
A|-3---3------5---5------1----1---1---0---0---0-----------------1-----------|
E|--------------------------------------------------------------------------|

0:47
e|--------------------------------------------------------------------|
B|--------------------------------------------------------------------|
G|-2------------------------------------------------------------------|
D|---3---10/12/10----14/7----10/12/10----14/10----10/12/10-------14---|
A|--------------------------------------------------------------------|
E|--------------------------------------------------------------------|

2:05 "SOLO"
e|-----------------|-----------------------|--------------------|--------------------------|
B|-----------------|-----------------------|--------------------|--------------------------|
G|-----------------|--------5----7--5------|--------------------|--------------------------|
D|-------3-5/7-3---|--5/7----7--------7----|-17b15-----15-------|--------15----------17--15|
A|--3-5------------|-----------------------|--------17-------17-|-15/17---------17-17------|
E|-----------------|-----------------------|--------------------|--------------------------|


SOLO TROMBA.

FINE
e|-----------------------------------------------------------------------------|
B|-----------------------------------------------------------------------------|
G|-----2----2----2------------------ ------------------------------------------|
D|--3----3----3-----3----------------------------------------------------------|
A|-----------------------------------------------------------------------------|
E|-----------------------------------------------------------------------------|

IL RESTO DELLA CANZONE  UGUALE


************************************

| /   slide up
| \   slide down
| h   hammer-on
| p   pull-off
| ~   vibrato
| +   harmonic
| x   Mute note
| b   Bend
| pb  Pre-bend
| br  Bend release
| pbr Pre-bend release
| brb Bend release bend

************************************
Tap to rate this tab
 
# A B C D E F G H I J K L M N O P Q R S T U V W X Y Z