Song name
# A B C D E F G H I J K L M N O P Q R S T U V W X Y Z

Ligabue - Non E Tempo Per Noi tab

NON E' TEMPO PER NOI
(Luciano Ligabue)
______________________________________________________________________________


Intro: 
| G  | D  | C  | Em |
| G  | D  | C  | G  |

giro strofa:
| C  | C  | D  | D  | G  | D/F# | Em | Em |
| C  | C  | D  | D  | G  | D/F# | Em | Em |
| C  | C  | D4 | D  | C  | C    | D  | D  |

giro rit.:
| G  | D  | C  | Em | G  | D  | Em | Em |
| C  | D  | Em | A  | C  | D  | F  | G  |

giro solo:
| G  D  | C  Em | G  D  | Em Em |
| C  D  | Em A  | C  D  | G  G  |


tab del solo:
(tabbed by masho90)

   G           D          C            Em        G            D         Em          Em
e|--7-5-----------------|----------------------|----------------------|-----------------------|
B|------8-7-------------|----------------------|----------------------|-----------------------|
G|----------------------|----------------------|----------------------|-------4-7-7b9~8~9~8~9-|
D|------------/7--/7-/7-|------5---5-~~4~5~4~5-|-7-5-4----------------|---5-7-----------------|
A|----------------------|-7------7-------------|-------7-5-7--5-------|-7---------------------|
E|----------------------|----------------------|----------------------|-----------------------|
   '      '    '   '      '    '    '    '       '     '      '   '     '     '     '    '
   C                D          Em         A         |
e|---------8---10--/12-10---\|----------------------|
B|-----8-8---8----8----------|-10b12-r-p8-----------|
G|-7/9-----------------------|------------9---------|
D|---------------------------|----------------------|
A|---------------------------|----------------------|
E|---------------------------|----------------------|

  C         D           G           G
|-8h10---7----5--\----|/15-----------------------|
|---------------------|----15-12-----------------|
|---------------------|----------12-~11~12~11~12-|
|---------------------|--------------------------|
|---------------------|--------------------------|
|---------------------|--------------------------|
   '       '        '    '     '    '     '    '      '    '    '    '      '     '     '        '
Tap to rate this tab
# A B C D E F G H I J K L M N O P Q R S T U V W X Y Z