Guitaretab - guitar tabs
Song name
# A B C D E F G H I J K L M N O P Q R S T U V W X Y Z

Ligabue - Baby E Un Mondo Super tab

BABY, E' UN MONDO SUPER

INTRO:  Trillo di telefono (Lab ->  16 tasto del Mi cantino)

        ------------------------------
        ------------------------------
        ------------------------------
        -----4-4---2-4---2-4-2--------
        ---2-------------------4------

[Intro/Bass Outro]
[Versione alternativa di Alessandro Marini]
               +-3-+
G:-------------------|
D:-----4---4---------| X 4
A:-------------4-2---|
E:-2-----2---2-----5-|
   1 . 2 . 3 . 4

(FA#)
 Baby il mondo ha sempre ragione
 supermostri e superbuoni
 super-ate i nuovi confini

 Billy siamo qua ed aspettiamo
 dacci il nostro chip quotidiano
 siamo sempre ci  che mangiamo
   SI
   portati dietro te nel nuovo ordine
   se no si sballa il target

 FA#
 superstragi senza risposta
 nuove nuove dal superteste
                         [stop]
 anni '80 a grande richiesta
  sicuro che ti fai il pieno di super ?

       FA#
[Rit]  Cos' che non va ?
       SI
       Cosa non va ?
         MI         LA    FA#
       Baby,  un mondo super !

        Cos' che non va ?
       SI
       Cosa non va ?
         MI         LA    FA#    [Fill]
       Baby,  un mondo super !

 [Fill/Guit Outro]
   FA#
e:-----------------|-----------------|-----------------|-----------------||
B:-----7-----5-----|-----7-----5-----|-----7-----5-----|-----7-----5-----||
G:-----------------|-----------------|-----------------|-----------------||
D:-4/5---4/5-------|-4/5---4/5-------|-4/5---4/5-------|-4/5---4/5-------||
A:-----------------|-----------------|-----------------|-----------------||
E:-----------------|-----------------|-----------------|-----------------||
   1 . 2 . 3 . 4 .   1 . 2 . 3 . 4 .   1 . 2 . 3 . 4 .   1 . 2 . 3 . 4 .


 La cultura ti alza la voce
 tre miliardi di analfabeti
 per una "cultura di pace"
[ Tab from: http://www.guitaretab.com/l/ligabue/77619.html ]
 Cercati il tuo karma nel sito
 fatti un clone maleducato
 non lasciare a casa l'invito
   sotto la chimica la capra lievita
   e si modifica bene

 Baby il mondo ha sempre ragione
 puoi gonfiarlo di silicone
 ma alla fine ha sempre ragione
  sicuro che mi fai il pieno di super ?

[Rit]  Cos' che non va ?
       Cosa non va ?
       Baby,  un mondo super !
       Cos' che non va ?
       Cosa non va ?
       Baby,  un mondo super !

  +-----                              +-----
  | 1,2                               | 3
  [Solo]MIbm        MI                |MIbm
e:-----------------|-----------------|-----------------|----/7-7--------|
B:----/7-7---------|----/9-9---------|----/7-7---------|----/9-9--------|
G:-----------------|-----------------|-----------------|----------------|
D:-----------------|-----------------|-----------------|----------------|
A:-----------------|-----------------|-----------------|----------------|
E:-6-------------6-|-7---------------|-6---------------|-7--------------|
   1 . 2 . 3 . 4 .   1 . 2 . 3 . 4 .   1 . 2 . 3 . 4 .   1 . 2 . 3 . 4 .

  FA#
e:----------------------------------|----------------------------------||
B:-------------------12----11-------|-------------------12----11-------||
G:-11-------11----------------14-11-|-11-------11----------------14-11-||
D:----11-13----11-13----------------|----13-11----13-11----------------||
A:----------------------------------|----------------------------------||
E:----------------------------------|----------------------------------||
   1     .     2     .  3  .  4  .    1     .     2     .  3  .  4  .

  vero che ti fai il pieno di super ?

[Rit]  Cos' che non va ?
       Cosa non va ?
       Baby,  un mondo super !
       Cos' che non va ?
       Cosa non va ?
       Baby,  un mondo super !

       Cos' che non va ?
       Cosa non va ?
       Baby,  un mondo super !
       Cos' che non va ?
       Cosa non va ?
       Baby, il mondo  super !
       Baby, il mondo  super !
       Baby, il mondo  super !

[Outro][Bass+Guitar]
Related for Baby E Un Mondo Super tab