Guitaretab - guitar tabs
Song name
# A B C D E F G H I J K L M N O P Q R S T U V W X Y Z

Ligabue - Chissa Se In Cielo Passano Gli Who tab

CHISSA' SE IN CIELO PASSANO GLI WHO - Luciano Ligabue

Nota bene: Sib* corrisponde a questo passaggio

e----0---1---0---1-|
b----3---3---3---3-|
g----3---3---3---3-|
d----3---3---3---3-|
a----x---x---x---x-|
E----x---x---x---x-|

Intro: Sib* Fa

   Do                       Sib*   Fa
E buonanotte a tutti i suonatori
    Do                      Sib*   Rem
a quelli che la devono far fuori
   Do                             Sib
a chi c'ha il mondo sempre pił lontano
   Solm            Lam         Fa
perchč ha vissuto sempre contromano
  Do                             Sib*        Fa
a chi non butta via la notte coi pensieri
   Do                             Sib*     Fa
A quelli che una coppia č gią una folla
  Do                          Sib*     Rem
e dicono che il cielo sia una balla
  Do                         Sib
a quelli che da soli ci stan stretti
  Solm           Lam          Fa
e pensano che il cielo sia di tutti
  Do                           Sib*                 Do
a lui e lei che stanno insieme solo con la colla

                          Solm    Sib
e poi a quelli che non ritornano
         Do
certo lassł forse lassł
       Solm           Sib          Fa
sono capaci di non dormire mai pił

    Do                         Sib  Fa
Chissą se in cielo passano gli Who
    Do                         Sib  Rem
chissą se in cielo passano gli Who
    Do                         Sib
chissą che nome d'arte avrą il dj
   Solm             Lam        Fa
se sceglie sempre e solo tutto lui
   Do                          Sib   Fa Do Sib  Fa Do Sib
se prende le richieste che gli fai

A chi decide di ammazzare il tempo
e il tempo invece servirebbe vivo
a chi sta in giro perchč non ha scelta
perchč comunque il sonno non arriva
a quelli che ogni notte puoi giurarci son presenti
E buonanotte a chi la sa godere
a quelli che han bisogno di star male
a chi ha paura di restare fermo
e sogna un pņ pił forte quando č sveglio
a quelli che non hanno mai saputo dove andare

e poi a quelli che ci salutano
certo lassł forse lassł
sono capaci di non sognare mai pił

Chissą se in cielo passano gli Who
chissą se in cielo passano gli Who
chissą che nome d'arte avrą il dj
se sceglie semre e solo tutto lui
se prende le richieste che gli fai

Ripetere il giro del ritornello 2 volte, la seconda sfumando...


Song:Chissą se in cielo passano gli who?
Artist:Ligabue
Album: Fuori come va?
Year:2002

TAB
   GUITAR1
Verse 1
e|---0---1---0---1-0---------0---1---0---1-0-------------0---1---0---1-0-----|
b| --3---3---3---3-3--1---1--3---3---3---3-3----1-----1--3---3---3-------3---|
g|---3---3---3---3-3--2---0--3---3---3---3-3----2-----0--3---3---3---------3-|
d|--------------------3---2---------------------3-----2----------------------|
a|--------------------3---0---------------------3-----0----------------------|
E|--------------------1-------------------------1----------------------------|
[ Tab from: http://www.guitaretab.com/l/ligabue/77624.html ]
e|--1-----------------1-----------------|
b|--3--3-----1---3----3--1--1-----1-----|
g|--2------0-----3----2--0--2-----0-----|  Twice
d|---------2-----3-------2--3-----2-----|
a|---------0-------------0--3-----0-----|
E|--------------------------1-----------|
-
Pre Chorus
e|--1-1-1-1-1-1-1-1---3-3-3-3-3-3-3-3---1---0---3-3-3-3-3-3-3-3--1-1-1-1-1-1-1-|
b|--3-3-3-3-3-3-3-3---5-5-5-5-5-5-5-5---3---3---5-5-5-5-5-5-5-5--3-3-3-3-3-3-3-|
g|--3-3-3-3-3-3-3-3---5-5-5-5-5-5-5-5---3---3---5-5-5-5-5-5-5-5--3-3-3-3-3-3-3-|
d|--3-3-3-3-3-3-3-3---5-5-5-5-5-5-5-5---3---3---5-5-5-5-5-5-5-5--3-3-3-3-3-3-3-|
a|-----------------------------------------------------------------------------|
E|-----------------------------------------------------------------------------|

Chorus
e|---------------1---------------1-----------1------0-----------------1--|
b|-----1----1----3----1-----1----3---3---1---3--3---1-------1----1----3--|
g|---2----0----3----2-----0----3---2---0---3----2---0-----2----0----3----|
d|-3----2----3----3-----2----3---0---2---3------0---2---3----2----3------|
a|-----------------------------------------------------------------------|
E|-----------------------------------------------------------------------|

Bridge
e|-------------------------------------------------------------|
b|-----------10-----10----10--10-------------------------------|
g|-------10-----12----12----------10---5/7--10-10-9-9-7--------|    Twice
d|---10----------------------------------------------- /10-----|
a|-------------------------------------------------------------|
E|-------------------------------------------------------------|

The second verse it's a "heavy" version of the first

Outro
Bridge twice then

e|-------------------------------------------------------------|
b|-------10-----10----10--10-------11-10-10-11-10-10-11-10-----|
g|----10----12----12----------10---10-10-10-10-10-10-10-10-----|
d|-10-------------------------------------------------------10-|
a|-------------------------------------------------------------|
E|-------------------------------------------------------------|

Then the progression is like the second verse.

GUITAR 2
Verse
e|-------------------------------------------------|
b|--6\1--6\1----6\--------------1p0h1--------------|
g|-----------------2-----2h3p2---------------------|
d|-------------------------------------------------|
a|-------------------------------------------------|
E|-------------------------------------------------|

Pre chorus
e|------------------1----0------------------------|
b|-3-3------1---1---3----3-----1--1---------------|
g|-3-3------0---0---3----3-----0--0---------------|
d|-3-3------2---2---3----3-----2--2---------------|
a|-1-1------3---3---1----1-----3--3---------------|
E|------------------------------------------------|

Chorus
e|-------------------------------------------------------------------------|
b|--1----1--------6------6----6--6--------6-----6----6-6-------------------|
g|--2----0----------9------9-------5/2-------9-----9--------5\2---2/5-5/10-|
d|--3----2--8---8------------------------8---------------------------------|
a|--3----0--8-8------------------------8-----------------------------------|
E|--1----------------------------------------------------------------------|

e|--------------------|
b|--------------------|
g|--2/5----5----------|
d|-------5-----8------|
a|--------------------|
E|--------------------|

Bridge

e|------------1-----------1------|
b|--1----1----3----1---1--3------|
g|--2----0----3----2---0--3------|
d|--3----2----3----3---2--3------|
a|--3----0----1----3---0--1------|
E|--1------------- 1-------------|

Outro
Play the bridge then

e|---1-----1---1------------------1------------------------------------|
b|---3--1--3---3---1---1----1-----3----6\1--1/6--6\1--1/6--------------|
g|---2--0--3---2---0---2----0-----3------------------------------------| Ad
d|---0--2--3---0---2---3----2-----3------------------------------------| Libitum
a|------0----------0---3----0-----1------------------------------------|
E|---------------------1-----------------------------------------------|

Legend
h=hammer on
p=pull off
\=slide down
/=slide up

INTRO
VERSE:
F|Am7|Bb
F|Am7|Bb
Dm|Am7|Bb Twice
Dm|Am7|F
Am7|Bb
PRE CHORUS:
C|Bb|C|Bb
CHORUS:
Am7|Bb|F
Am7|Bb|F
Am7|Bb
Dm|Am7|F
Am7|Bb|F
BRIDGE:
Am|Bb|F|Am7|Bb
THEN PLAY VERSE, PRE CHORUS, CHORUS, OUTRO
OUTRO:
Dm Am7 Bb F Am7 Bb F Bb F
Related for Chissa Se In Cielo Passano Gli Who tab
Advertisement will be closed in 10 seconds