Song name
# A B C D E F G H I J K L M N O P Q R S T U V W X Y Z

Ligabue - Con Queste Facce Qui tab

~~~~~~~~~~~~~~~~~~~~
CON QUESTE FACCE QUI
~~~~~~~~~~~~~~~~~~~~

Intro: A A9 D

   A          A9
Le carte sono date
         D
e tu hai mano quel che hai.
     A           A9
Vien voglia di bluffare,
       D
ma non la berranno mai,
        A A9 D         A  A9   D
per cui oh!... va bene anche cosi'
        A A9 D         G         D        A A9 D A A9 D
per cui oh!... va bene anche per forza cosi'.

Puo' darsi tu non sia
come ti volevano.
Se ti consola, come te,
ci siamo in un bel po',
percio' oh!... tu sei quello li'
percio' oh!... percio' noi siamo questi qui.

Con queste facce qui
con queste facce qui
contenti oppure no
siam questi qui percio'...
fra pregi e limiti
e queste facce qui.

Puo' darsi non sia tutto
come lo sognavi tu.
E, forse, sei rimasta senza principini blu
pero' oh!... le cose stanno cosi'
pero' oh!... se ti basta noi siamo qui.

Con queste facce qui
con queste facce qui
fra favola e realta'
noi siamo l'ultima:
staremo scomodi
ma con queste facce qui.

[Riff 2] A  D  A  G D

TAB di Alessandro Marini]

[Riff 2]LA                            LA
e:-----------------|----------------|-----------------|-----------------|
B:-2-3-2-3-5---2-3-|-2-3-5----------|-2-3-2-3-5---2-3-|-2-3-5-----------|
G:-----------------|----------------|-----------------|-----------------|
D:-----------------|----------------|-----------------|-----------------|
A:-----------------|----------------|-----------------|-----------------|
E:-----------------|----------------|-----------------|-----------------|
   1 . 2 . 3 . 4 .   1 . 2 . 3 . 4 .  1 . 2 . 3 . 4 .   1 . 2 . 3 . 4 .

   LA                                 RE
e:-----------------|----------------|/3-------2-------|-----------------|
B:-2-3-2-3-5---2-3-|-2-3-5----------|-----------------|/5-------2-------|
G:-----------------|----------------|-----------------|-----------------|
D:-----------------|----------------|-----------------|-----------------|
A:-----------------|----------------|-----------------|-----------------|
E:-----------------|----------------|-----------------|-----------------|
   1 . 2 . 3 . 4 .   1 . 2 . 3 . 4 .  1 . 2 . 3 . 4 .   1 . 2 . 3 . 4 .


G            A            D
Facce ognuna con i propri segni
           A
e i propri debiti.
G                           D
Facce che son facce che son facce davvero.
G            A            D
Facce ognuna con i propri specchi,
       A
ognuna unica
G                            D
facce che son facce, che son facce cosi'.


Le carte sono date
e ognuno ha messo il proprio cip.
E non si puo' bluffare mai
con queste facce qui,
per cui oh!... va bene anche cosi'
per cui oh!... va bene anche per forza cosi'.

Con queste facce qui
con queste facce qui
che piacciano o no
o che disturbino,
son nostre e son cosi':
son queste facce qui.

[Riff finale]
[e' uguale al riff 2, ma questa e' la mia trascrizione]

e:---------0--           -3-2-0----|
B:-2h3p2h3----           -------3--|
G:------------ (x4) poi: ----------|
D:------------           ----------|
A:------------           ----------|
E:------------           ----------|
|__________________________________|
     Ripete tutto e finisce con:

e:-3-2-0----|
B:-------2--|
G:----------|
D:----------|
A:----------|
E:----------|
Tap to rate this tab
# A B C D E F G H I J K L M N O P Q R S T U V W X Y Z