Song name
# A B C D E F G H I J K L M N O P Q R S T U V W X Y Z

Ligabue - Lodore Del Sesso tab

L'ODORE DEL SESSO


                     X3
---------7-------7---------------|
------8------10---10--8----------|
----9-----9----------------------|
---------------------------------|
---------------------------------|
---------------------------------|

Si fa presto a cantare...................cose
                             X2
----------7-------7--------------------|
-------8------10---10---8--------------|
----9-------9--------------------------|
---------------------------------------|
---------------------------------------|
---------------------------------------|
                         x2
--------------7--------7-------------|
-----------8-------10---10--8--------|
--------7-------7--------------------|
-------------------------------------|
-------------------------------------|
-------------------------------------|

Si fa un po' meno presto ...................cosė
                             X2
----------7-------7--------------------|
-------8------10---10---8--------------|
----9-------9--------------------------|
---------------------------------------|
---------------------------------------|
---------------------------------------|

                         x2
--------------7--------7-------------|
-----------8-------10---10--8--------|
--------7-------7--------------------|
-------------------------------------|
-------------------------------------|
-------------------------------------|
......il seguito......boh....!!!


Mi-                             Do               Sol
 Si fa presto a cantare che il tempo sistema le cose
    Mi-                         Do                Sol
 si fa un po' meno presto a convincersi che sia cosė
       Mi-                Do
 io non so se č proprio amore:
          Sol         La
 faccio ancora confusione
         Do                Re            Mi-  Re
 so che sei la pių brava a non andartene via
  La   Do
 forse ti ricordi
   Re     Sol
 ero roba tua


                Mi-             Do              La
    non va pių via l'odore del sesso che hai addosso
    Sol            Mi-              Do          La
    si attacca qui all'amore che posso che io posso


 e ci siamo mischiati la pelle le anime le ossa
 ed appena finito ognuno ha ripreso le sue
 tu che dentro sei perfetta
 mentre io mi vado stretto
 tu che sei cosė brava a rimanere mania
 forse ti ricordi
 sono roba tua

     non va pių via l'odore del sesso che hai addosso
     si attacca qui all'amore che posso che io posso

     non va pių via l'odore del sesso che hai
     addosso si attacca qui all'amore che posso che io posso


     non va pių via davvero non va pių via nemmeno se...

     non va pių via
Tap to rate this tab
 
# A B C D E F G H I J K L M N O P Q R S T U V W X Y Z