Guitaretab - guitar tabs
Song name
# A B C D E F G H I J K L M N O P Q R S T U V W X Y Z

Ligabue - Libera Uscita tab

Libera uscita (Ligabue)

intro:

-----------------------------------------------|
-----------------------------------------------|
-------------6----6h7-----7-----6----4---------|
-------------7----7-------7-----7----7---------|
-----------------------------------------------|
-----------------------------------------------|

praticamente gira su questi miniaccordi l'intro.

poi il riff  sul 5 tasto in La

--------------------------------------------------------------------------------|
--------------------------------------------------------------------------------|
--------------------------------------------------------------------------------|
-----7-7-----7-7------------5h7--------7--7------7-7----------------------------|
-----------------------5h7---------------------------------5--7p5---------------|
--5------5---------5----------------5----------5----------------------8b9--5----|

poi gli accordi sono questi:
La  SI DO#minore RE

e alla fine del ritornello fa cosi:


------------------------------|
------------------------------|
----44-----------------0------|
----44--------------4---------|
----22----------5-------------|
------------------------------|

per le pennate ascoltate la canzone si capiscono benissimo

il riffettino durante il ritornello
mi sembra che suoni cosi:
[ Tab from: http://www.guitaretab.com/l/ligabue/77643.html ]
-----------------------------------------------|
-----------------------------------------------|
-----------------13b14---------------13b14-----|
------14--14--------------14--14---------------|
-----------------------------------------------|
-----------------------------------------------|


intro: La Re La Re

La
e non ci prendono i quarant'anni,
     Si-
e non ci prender bill gates
      Do#-    Re
e non ci prendono con i sondaggi che non ci prendono con noi
e non ci prendono vecchie balle
nemmeno nuove nostalgie
ci hanno promesso un grande futuro
e poi ce l'han tolto c'han detto "scusate" e cos sia

e non ci prendono sul serio
d'altronde non l'han fatto mai
siam sempre stati il pesce d'aprile anche quando l'aspetti anche quando lo
sai
e non ci prendono comodamente
n con il loro di e di
n con il loro chi tace acconsente
noi non abbiamo taciuto mai
e non ci beccano pi - e non ci provano pi
non se lo chiedono pi cosa facciamo qui nelle scarpe da corsa

libera uscita in libero mondo
       Si  Re     La
libera scelta di dirlo io com' che mi spendo... com'...com'

e non ci mettono il costume
e non ci prendono l'energia
abbiamo deciso che crederci ancora non sia una brutta malattia
e non ci cambiano il biglietto
e non ci cambiano l'idea
siam sempre stati quelli che loro dicevano sono gi andati via
e non ci beccano pi - e non ci provano pi
non se lo chiedono pi cosa facciamo qui nelle nostre mutande

libera uscita in libero mondo
libera scelta di dirlo io com' che mi spendo
libera uscita senza rincorsa
libera scelta di dirlo noi cos' che abbiam perso.....se c'....se c'
Related for Libera Uscita tab