Song name
# A B C D E F G H I J K L M N O P Q R S T U V W X Y Z

Ligabue - Non Dovete Badare Al Cantante tab

NON DOVETE BADARE AL CANTANTE

INTRO
                               Non do-
E|--5---5-5--3---3-3--0---0-0--0-----|
B|--3---3-3--1---1-1--1---1-1--1-1---|2 VOLTE
G|---------------------------------0-|
D|-----------------------------------|
A|-----------------------------------|
E|-----------------------------------|

      G      Am7        C
     -vete badare al cantante
      G         Am7         C
tutta gente che viene e che va
      D                  Em
tutta gente che resta soltanto un momento
   C                     G
soltanto nel caso che il pezzo ci diverti-

   Am7                  D4       D
  -ra'
E|-0--0-0------------|--3---3-3---2---2-2--|
B|-1--1-1---------1--|--3---3-3---3---3-3--|
G|-0--0-0---0--2-----|--2---2-2---2---2-2--|
D|-2--2-2------------|--0---0-0---0---0-0--|
A|-0--0-0------------|---------------------|
E|-------------------|---------------------|

non dovete badare al cantante
lo sappiamo la vita che fa
guarda solo la foto che c'e' sul giornale
e ci siamo capiti che razza di uomo sara'

        C             D
CHORUS:    certe vite passano
        Em              Bm
           leggere come le canzoni
        C                   D          Am7    Bm7
           che dietro le canzoni vanno
        D             D
           certe vite sfumano
        Em             Bm
           veloci come le canzoni
        C                   D           Am7   Bm7   C
           che dentro le canzoni stanno

non dovete badare al cantante
quello li che si crede una star
quello li che si crede uno che lasci il segno
e invece una volta passato chi si voltera'

RIPETI CHORUS:
[adesso solo chitarra e voce]
      G       Am7       C
non dovete badare al cantante
      G         Am7         C
tutta gente che viene e che va... [entra il mitico organello hammond]

G  Am7  C (4 volte)
                C                  G
ultima volta:E|-0---0-0----------|-3------------|
             B|-1---1-1----------|-3------------|
             G|-0---0-0----------|-0------------|
             D|-2---2-2----------|-0------------|
             A|-3---3-3--3--2--0-|-2------------|
             E|-3---3-3----------|-3------------|
Tap to rate this tab
# A B C D E F G H I J K L M N O P Q R S T U V W X Y Z